Chordie logo

content loaded from cache

Blue Devil-crd  Hank Williams

------------|---3---3---3---|


------------|---0---0---0---|


------------|---0---0---0---|


------------|---0---0---0---|


------------|---x---x---x---|


-7-6-5---3--|------3---3----|






[G]I use to have a nice life.    (the  lick, shown in the intro above, is
repeated here and after all other lines.)
And I used to live by the right.
But I strayed from the good side of the lord.
[D]And I flirted with the devil, and he delt me a card. [G]
chorus:
And he told me, that yo[C]u will never win.[G]
And he told me that I [D]was his best friend.[G]
I had no friend [C](faith?) to go home to.[G]
So, I sold[D] my sole to the devil; now  I'm blue.[G]
Instrumental:
Play 2x-------------|                                                           

/-3-\ /-3-\
------------------------|-----------------------|
 8-8-8-8-8-8-8-----|---6-8-6---6-8-6--|
---------------------7-|-7-------7------------|
------------------------|-----------------------|
------------------------|-----------------------|
------------------------|-----------------------|

bend
---------------|-8-8-6------|
---6-8-6-------|--------8---|
-7-------7-----|------------|
---------------|------------|
---------------|------------|
---------------|------------|

bend
 /        /-3\ /-3-\ /-3-\ /-3-\
-8-8-6----|------6-----------6--------|
--------8--|--6-8---8-6---6-8---8-6|
------------|-7----------7--------------|
------------|----------------------------|

------------|----------------------------|
------------|----------------------------|
/-3-\ /-3-\     /---3--\
-------6----------|-10-10-10-10--8-10--|
---6-8---8-6----|----------------------------|
-7------------7--|----------------------------|
------------------|----------------------------|
------------------|----------------------------|
------------------|----------------------------|
 /-3-\            /--3--\ /--3--\
-8-8-8-8--6-8-6----|------------------------
---------------8-------|-5/6-6-6--5/6-6-6---5--3
------------------------|-6/7-7-7--6/7-7-7---5--3
------------------------|------------------------
------------------------|------------------------
------------------------|------------------------

-----|
-----|
-4---|
-5---|
-----|
-----|
  [G]Never thought it could be this bad.
Hurtin' like this oh it's killin' me bad.
Now I'm stuck in[C] a life of pain.[G]
And I got t[D]he devil takin' me away.[G]
Repeat chorus:
note: sing "only friend" this time.
Authors note: There you have it, friends. My first song submitted. It's also
my first attempt at tabulator. While not 100% accurate, you should be able to
play it after listening to the CD a couple of times. I welcome any and all
comments (especially on the tabs). My email is twms123@aol.com.

Important: The song above is NOT stored on the Chordie server. The original song is hosted at www.roughstock.com. Chordie works as a search engine and provides on-the-fly formatting. Chordie does not index songs against artists/composers will. To remove this song please click here.

C D G
variations - click chord images

Transpose chords

Tuning

Rating click stars to rate

Layout
Accuracy

SHARE PAGE  



You need to log in to post comments