"yes"; ?> Jack And Diane-tab by John Mellencamp - guitar chords, guitar tabs and lyrics - chordie

Jack And Diane-tab

John Mellencamp

------   -----------    ------    ---------------

--------


 AE/AAE/AD
e-|--------------------------|--------------------------|-----|-----|
B-|-10-----------------------|--9----------10-----9-----|--7--|-----|
G-|--9-----------------------|--9-----------9-----9-----|--7--|-----|
D-|-11-----------------------|--9----------11-----9-----|--7--|-----|
A-|--0-----------------------|--0-----------0-----0-----|--0--|-----|
E-|--------------------------|--------------------------|-----|-----|

*
Riff 1b:
 AE/AAE/AAE/AD
e-|--------------------------|--------------------------|--------|-----|
B-|-10--------9--------9-----|-10--------9----10-----9--|-(9)-7--|-----|
G-|--9--------9--------9-----|--9--------9-----9-----9--|-(9)-7--|-----|
D-|-11--------9--------9-----|-11--------9----11-----9--|-(9)-7--|-----|
A-|--0--------0--------0-----|--0--------0-----0-----0--|-(0)-0--|-----|
E-|--------------------------|--------------------------|--------|-----|

*
* = Deaden after 1 beat
GUITAR II
---------

This is an acoustic guitar capoed at the 2nd fret. A good clue for
figuring this out is the recognizable D-Dsus4-D chord progression,
which happens to be a whole-tone sharp. As usual for capoed guitar
parts, I have given fret numbers relative to the capo and named chords
as if they were being played in standard tuning.
Rhythmn 1a:
 GDDsus4DCDDsus4D
f#|--3--3--3--2-----3--2-----|--0-----0-----2-----3--2--|
C#|--3--3--3--3-----3--3-----|--1-----1-----3-----3--3--|
A-|--0--0--0--2-----2--2-----|--0-----0-----2-----2--2--|
E-|--0--0--0--0-----0--0-----|--2-----2-----0-----0--0--|
B-|--2--2--2-----------------|--3-----3-----------------|
F#|--3--3--3-----------------|--------------------------|

 GDDsus4DCDG
f#|--3--3--3--2-----3--2-----|--0-----2-----3-----3--3--|
C#|--3--3--3--3-----3--3-----|--1-----3-----3-----3--3--|
A-|--0--0--0--2-----2--2-----|--0-----2-----0-----0--0--|
E-|--0--0--0--0-----0--0-----|--2-----0-----0-----0--0--|
B-|--2--2--2-----------------|--3-----------2-----2--2--|
F#|--3--3--3-----------------|--------------3-----3--3--|

Rhythmn 1b:
Same as above except that the first two bars are played 3 times
before playing bars 3 & 4 (i.e. 1 2 1 2 1 2 3 4).
Fill 1:
This may not be 100% accurate, but it's pretty close. I find it
easiest to play this part using my thumb and fingers on my right hand
(no pick).
f#|--------------------------|--------------------------|
C#|--3-----D-----3-----3-----|--3-----D-----3-----3-----|
A-|--0-----D-----2--------2--|--0-----D-----2--------2--|
E-|--------------------------|--0-----D-----------------|
B-|--2-----D-----0-----------|--------------0-----------|
F#|--------------------------|--3-----D-----------------|
f#|--------------------------|--------------------------|
C#|--3-----D-----3-----3-----|--3-----D-----3-----------|
A-|--0-----D-----2-----2-----|--0-----D-----0-----------|
E-|--------------------------|--2-----D-----0-----------|
B-|--2-----D-----0-----------|--------------------------|
F#|--------------------------|--3-----D-----3-----------|

D = Deaden string with right hand
GUITAR III
----------

This acoustic guitar is playing the same chords used in the Riffs.
The open A string is definitely present, which means the guitar is not
capoed. If you want to play this part on guitar II, I would suggest
playing the low A chord using a standard barre shape, 5776xx (these
are actual frets, not relative to the capo). For the rest of the
chords, play what's given below without the open A string.
Rhythmn 2:
 AE/AAE/ADE/AAE/A
e-|--------------------------|--------------------------|
B-|--2--2--2--2-/9----10--9--|--7-----7-----9----10--9--|
G-|--2--2--2--2-/9-----9--9--|--7-----7-----9-----9--9--|
D-|--2--2--2--2-/9----11--9--|--7-----7-----9----11--9--|
A-|--0--0--0--0-(0)----0--0--|--0-----0-----0-----0--0--|
E-|--------------------------|--------------------------|

 AE/AAE/ADA
e-|--------------------------|--------------------------|
B-|--2--2--2--2-/9----10--9--|--7-----7-----2--------X--|
G-|--2--2--2--2-/9-----9--9--|--7-----7-----2--------X--|
D-|--2--2--2--2-/9----11--9--|--7-----7-----2--------X--|
A-|--0--0--0--0-(0)----0--0--|--0-----0-----0--------X--|
E-|--------------------------|--------------------------|

X = Left hand muting




A C D Dsus4 G
variations - click chord images
Transpose chords:
Tuning:
Cool service:
View: Size:
A  A  A
Rating:
Layout:
  • Currently 3/5 Stars.
  • 1
  • 2
  • 3
  • 4
  • 5
 
Accuracy:
  • Currently 2.8/5 Stars.
  • 1
  • 2
  • 3
  • 4
  • 5
 
click stars to rate
Chordie recommends:
Check out these online guitar lessons
Songbook:
Login to add this song to your songbook
Support the artist
Preview/buy this song
MSN Music
Why this non-profit ad?

 
login to add comments/video/corrections