Guitar Tabs, Chords and Lyrics


Burnin Old Memories-tab  Kathy Mattea

-------------------------------------------------------


-------------------------------------------------------


------------------------------6--------4-------------------


-7--4------4--7--4---------4--------4------7--4-------------


-------7--------------7--7-------7---------------7--4-----


--------------------------------------------------------5--

I USED TO L[A]OVE HIM    [D]   THAT AIN'T NO L[A]IE[D]
A A7 X3 (SEE BELOW)
WE HAD A GOOD THING TILL HE SAID GOODBYE
X3 D7 A
THEN WITH ONE TOUCH YOU SET MY HEART ABLAZE
A X X2 A Lick (see below)
I'M BURNIN' OLD MEMORIES WITH A BRAND NEW FLAME
A PERFECT M[A]ATCH  [D]  THAT'S WHAT WE A[A]RE[D]
A A7 X3
I'M GETTIN' OVER HIM UNDERNEATH THE STARS
X3 D7 A
THE SMOKE HAS CLEARED FROM THE HOLD HE HAD ON ME
A X X2 A Lick (see below)
I'M BURNIN' OLD MEMORIES WITH A BRAND NEW FLAME
ONE BY O[D]NE THOSE OLD EMBERS BU[A]RN
YOU CAME ALO[D]NG WHEN I HAD NO WHERE TO T[E]URN
JUST WHEN I THO[A]UGHT I'D NE[D7]VER LOVE AG[A]AIN
A X X2 A Lick(see below)
I'M BURNIN' OLD MEMORIES WITH A BRAND NEW FLAME
WHEN I'M WITH Y[A]OU  [D]     I'M WITHOUT A DO[A]UBT[D]
A A7 X3
WE GOT A FIRE I DON'T EVER WANT PUT OUT
X3 D7 A
AND HERE WITH YOU IS WHERE I'M GONNA STAY
A X X2 A Lick(see below)
JUST BURNIN' OLD MEMORIES WITH A BRAND NEW FLAME.
repeat chorus
X
^^^^^^ 6th fret
^^0^0^ 7th fret
^^^0^0 8th fret
^^^^^^ 9th fret
X2
^^^^^^ 5th fret
^^0^0^ 6th fret
^^^0^0 7th fret
^^^^^^ 8th fret
X3
Sounds great if you do some random picking\strumming. Be sure you play
even the open strings.
                 Then with one t[D7]ouch
The smoke has cleared
And here with you
--------------------------------------
-5-----4-----3-----0---1---2-----------
---------------------------------------
-5-----4-----3-----0---1---2------------
--------------------------------------
--------------------------------------

Lick
-----------------------------
----------------------------
----------------------------
----------------------------
-0---------0------------------
----2--0---------------------


Important: The song above is NOT stored on the Chordie server. The original song is hosted at www.roughstock.com. Chordie works as a search engine and provides on-the-fly formatting. Chordie does not index songs against artists'/composers' will. To remove this song please click here.

Text color:
Chord color:
Chord grids: 
Font size:    
Page size: 

A D D7 E
variations - click chord images

Login - add to songbook

Transpose chords

Tuning

Rating click stars to rate

Layout
Accuracy

SHARE PAGE  




You need to log in to post comments