Guitar Tabs, Chords and Lyrics


Ill Be All Smiles Tonight-tab  Martina McBride

I'll [G]be all smiles tonight love, I'll b[C]e all smiles ton[G]ight
Though my h[D]eart may break tomorrow, I'll be all smiles ton[G]ight
I'll d[G]eck my brow with roses, the lo[C]ved ones may be th[G]ere
The j[D]ewels that others gave me will shine upon my h[G]ead
And e[G]ven those who know me will th[C]ink my heart is l[G]ight
Though my he[D]art may break tomorrow, I'll be all smiles ton[G]ight
I'll [G]be all smiles tonight love, I'll b[C]e all smiles ton[G]ight
Though my h[D]eart may break tomorrow, I'll be all smiles ton[G]ight
|G |G |G |G7 |C |C |G |G |D |D |D |D |D |D |G |G |
And [G]in the room he entered with a br[C]ide upon his [G]arm
I st[D]ood and gazed upon him as though he were a ch[G]arm
O[G]nce he smiled upon her as o[C]nce he smiled on [G]me
But they kn[D]ew not what I suffered for they found no change in [G]me
I'll [G]be all smiles tonight love, I'll b[C]e all smiles ton[G]ight
Though my h[D]eart may break tomorrow, I'll be all smiles ton[G]ight
chorus melody
| | | | | | | | | | |
|
|------------------|------------------|--3-----------5---|--7-----7-----

----|
|--------------3---|--------------3---|------------------|--------------

----|
|-----------------
|--4---------------|------------------|------------------|
|------------------|------------------|------------------|--------------

----|
|------------------|------------------|------------------|--------------

----|
|------------------|------------------|------------------|--------------

----|
| | | | | | | | | | |
|
|--------------5---|--3-----------5---|--3---------------|--------------

----|
|------------------|------------------|--------------5---|--3-----------

----|
|------------------|------------------|------------------|--------------

----|
|------------------|------------------|------------------|--------------

----|
|------------------|------------------|------------------|--------------

----|
|------------------|------------------|------------------|--------------

----|
| | | | | | | | | | |
|
|------------------|------------------|------------------|--------------

----|
|------------------|------------------|--------------3---|--7-----7-----

----|
|--------------4---|--2-----------4---|--5---------------|--------------

----|
|------------------|------------------|------------------|--------------

----|
|------------------|------------------|------------------|--------------

----|
|------------------|------------------|------------------|--------------

----|
|------------------|------------------|------------------|--------------

----|
| | | | | | | | | | |
|
|------------------|--------------8---|--7-----------5---|--3-----------

----|
|--------------5---|--3---------------|------------------|--------------

----|
|------------------|------------------|------------------|--------------

----|
|------------------|------------------|------------------|--------------

----|
|------------------|------------------|------------------|--------------

----|
|------------------|------------------|------------------|--------------

----|

Important: The song above is NOT stored on the Chordie server. The original song is hosted at www.roughstock.com. Chordie works as a search engine and provides on-the-fly formatting. Chordie does not index songs against artists'/composers' will. To remove this song please click here.

Text color:
Chord color:
Chord grids: 
Font size:    
Page size: 

C D G
variations - click chord images

Login - add to songbook

Transpose chords

Tuning

Rating click stars to rate

Layout
Accuracy

SHARE PAGE  




You need to log in to post comments