Guitar Tabs, Chords and Lyrics


She Aint Seen Nothing Yet-tab  Martina McBride

e--------------------------------------0-------3-2-----------------------


b----0-1-3-3-3---0-1-0--0---0-1-3-3------1--0--3-------------------------


g------------0--2-------0----------------------2-------------------------


d------------2----------0------------2---------0-------------------------


a------------3-----------------------3-----------------------------------


e-----------------------2------------------------------------------------

It's been a[C] while since she h[D]eard him s[G]ay
See you ton[C]ight his usual way[D]
There's alw[C]ays some place h[D]e's gotta [Em]go
Somew[C]here he needs to [D]be
Its not the s[C]ame now[D] when they to[G]uch
But she figur[C]es he's just working too[D] much
Somehow that m[C]akes it[D] all ok[Em]ay
And gets her[C] through an[D]other d[G]ay
Chorus:
She's heard[C] the talk all[D] over t[G]own
But she don't wanna[C] believe he's running ar[D]ound
Deep down in her he[C]art she [D]willing to b[Em]eg
Oh but she[C] ain't seen[D] nothing y[G]et
Second solo:
e------------------------------------------------------------------------
b---0-1-3-3-3----0-1-0-0-------------------------------------------------
g-----------0--2-------0-------------------------------------------------
d-----------2----------0-------------------------------------------------
a-----------3------------------------------------------------------------
e----------------------2-------------------------------------------------

Second Verse:
She wouldn't[C] read that heart[D]-shaped n[G]ote
She found in[C] the pocket of his c[D]oat
That time in[C] his car she[D] found an ea[Em]rring
You know that doe[C]sn't pr[D]ove a th[G]ing
(Repeat Chorus)
3rd Solo:
e--------------2----3----5----7----7----8----10----12----8----7----5-----
b--0--1--3--5------------------------------------------------------------
g------------------------------------------------------------------------
d------------------------------------------------------------------------
a------------------------------------------------------------------------
e------------------------------------------------------------------------ 

He's not s[C]ame man[D] that she [Em]met
Oh but she[C] ain't [D]seen nothin[G]g yet
She thinks it's as[C] bad as [D]its gonna [Em]get
Oh but she ai[C]n't seen[D] nothing [G]yet
Outro:
e------------------------------------------------------------------------
b---0--1--3--3--3----0--1--0--3---0--1--3--3--3----0--1--3---------------
g---------------0--2----------0---------------0--2-------0---------------
d---------------2-------------2---------------2----------0---------------
a---------------3-------------2---------------3----------2---------------
e--------------------------------------------------------3---------------

*MARTINA MCBRIDE'S SONGS ARE SUNG STRAIGHT FROM THE HEART, AND THIS
BALLAD PROVES IT!*

Important: The song above is NOT stored on the Chordie server. The original song is hosted at www.roughstock.com. Chordie works as a search engine and provides on-the-fly formatting. Chordie does not index songs against artists'/composers' will. To remove this song please click here.

Text color:
Chord color:
Chord grids: 
Font size:    
Page size: 

C D Em G
variations - click chord images

Login - add to songbook

Transpose chords

Tuning

Rating click stars to rate

Layout
Accuracy

SHARE PAGE  




You need to log in to post comments