Guitar Tabs, Chords and Lyrics

Jamie Bakers Love Slave-tab  Shenandoah

|----------------------  |---------------  |---------------------------

|----------------------  |---------------  |---------------------------

|------------(Play 3x)   |---------------  |---------------------------

|-1-0------------------  |-1-0-----------  |-1-0-----1-0---------------

|-----3-1-----------0-1- |-----3-1-1-1-1-  |-----3-1-----3-1-----------

|---------3-1-1-1-3----  |---------------  |-----------------3(4)(3)-1-

|-------------       |-------------------    |-------------------------

|-------------       |-------------------    |-------------------------

|-------------       |-------------------    |-------------------------

|-1-0---------       |-------------------    |-------------------------

|-----3-1-----       |---------------0-1-    |-------------0-----------

|---------3-1-       |-3(4)(3)-1-1-3-----    |-3(4)(3)-1-1h3-3-1-1-1-1-

Well her l[F]ove was a habit and I [Bb]tried to kick it[F] (A[Bb]1)
So I [F]went downtown and bought a [Bb]one way ticke[F]t (B1)
Then I r[F]oad that greyhound [Bb]down to makeup[F] ([Bb]A1)
Then I h[F]itchhiked back 'cause my [Bb]heart was breakin'[F] (B1)
[F]Oh now I [Bb]see, it's [F]dest[Dm]iny.  I c[F]an't be [Bb]free, I'm her [Bb]love [Bb]slave
Jamie Baker's lo[F]ve slave[Bb] [F] [Bb] [F] [Bb]
When I'm [F]close to her my [Bb]heart starts a thumpin'[F] (A[Bb]1)
When [F]she says froggie I [Bb]can't help but jumpin'  [F](B1)
She's got a[F] hold on me and there's [Bb]no escapin' [F](A1[Bb])
Yeah it's a [F]ball and chain of my[Bb] own makin' [F](B1)
chorus-main riff repeat first part only twice(no other ending on it)
Yeah I u[C]sed to go boating, [F]used to go fishin', u[C]sed to go drinkin' [F]too
But s[C]ince I been exposed to [F]her kinda kissin'
        [Bb]                     [C]        [F]    [Bb]   [F]     [Dm]   [F]     [Bb]                    
There's nothin' else I wanna do.   |-----------------------
slide chords- "yeah hoo!"	   |-3-3/-8-10-10/7-3-3/-8-

[Bb]Well I'm her slave,(start main solo...)  Jamie Baker's l[F]ove slave
(...use 3rd ending)
Jason A. Wendtland

Important: The song above is NOT stored on the Chordie server. The original song is hosted at Chordie works as a search engine and provides on-the-fly formatting. Chordie does not index songs against artists/composers will. To remove this song please click here.

Text color:
Chord color:
Chord grids: 
Font size:    
Page size: 

Bb C Dm F
variations - click chord images

Login - add to songbook

Transpose chords


Rating click stars to rate



You need to log in to post comments