Two Sparrows In A Hurricane-crd

Tanya Tucker

----------------------------6--

-------------------------------

-------------------------------

-------------------------------

--5--5--6--5--3--5--5--6-------

-------------------------------


 BbEbBb
 She's fifteen and he's barely driving a car
 BbEbBb
 She's got his ring and he's got the keys to her heart
 CEb
 It's just matter of time
 CEbF
 They'll spread their wings and fly 
CHORUS:
 BbEb
Like two sparrows in a hurri-cane
 BbEb
Trying to find their way
 Eb
With a head full of dreams
 GmF
and faith that can move anything
 BbEb
They've heard it's all uphill
 BbEb
But all they know is how they feel
 EbFBb
The world says they'll never make it, love says they will
Play Intro
 BbEbBb
 There's a baby crying and one more on the way
 BbEb
 There's a wolf at the door with a big stack of bills
 Bb
They can't pay
 CEb
 The clouds are dark and the wind is high
 CEbF
 But they can see the other side 
go to chorus, then to the key change with the following
-------------------------------------
-------------------------------------
-------------------------------------
------------------2--2--3--2--0------
--5--5--6--5--3----------------------
-------------------------------------

 CFC
 She's eighty-three and he's barely driving a car
 CFC
 She's got his ring and he's got the key to her heart
 DF
 It's just a matter of time
 DFG
 They'll spread their wings and fly 
go to chorus 2
CHORUS 2:
 CF
Like two sparrows in a hurri-cane
 CF
 Trying to find their way
 F
With a head full of dreams
 AmF
and faith that can move anything
 CF
They've heard it's all uphill
 CF
But all they know is how they feel
 FGC
The world says they'll never make it, love says they will
ENDING:
--------------------
--------------------
--------------------
-2--2--3--2--0------
----------------3---
--------------------



Am Bb C D Eb F G Gm
variations - click chord images
Transpose chords:
Tuning:
Cool service:
View: Size:
A  A  A
Rating:
Layout:
  • Currently 3.3/5 Stars.
  • 1
  • 2
  • 3
  • 4
  • 5
 
Accuracy:
  • Currently 2.8/5 Stars.
  • 1
  • 2
  • 3
  • 4
  • 5
 
click stars to rate
Chordie recommends:
Learn to play guitar with video-based, online guitar lessons at JamPlay.com
Songbook:
Login to add this song to your songbook
Support the artist
Preview/buy this song
MSN Music
Why this non-profit ad?

 
login to add comments/video/corrections