""; ?> The Cowboy In Me2-tab by Tim McGraw - guitar chords, guitar tabs and lyrics - chordie

The Cowboy In Me2-tab

Tim McGraw

e|--------0----------3p0-------------0----------3p0--------

B|------3---3------------3---------3---3------------3------

G|----2-------2----2-------0h2---2-------2----2-------0h2--

D|--0------------0-------------0------------0--------------

A|---------------------------------------------------------

E|---------------------------------------------------------

e|--------0----------3p0-------------0----------3p0--------

B|------3---3------------3---------3---3------------3------

G|----2-------2----2-------0h2---2-------2----2-------0h2--

D|--0------------0-------------0------------0--------------

A|---------------------------------------------------------

E|---------------------------------------------------------

e|--------0--------------------------0----------3p0--------

B|------3---3----------2-----------3---3------------3------

G|----2-------2------2---2-------2-------2----2-------0h2--

D|--0--------------2-------2---0------------0--------------

A|---------------0-----------------------------------------

E|---------------------------------------------------------


 DGD
don't know why I act the way I do
 DAD
Like I ain't got a single thing to lose
 DGD
Sometimes I'm my own worst enemy
 DAD
guess that's just the cowboy in me
Verse 2
I got a life that most would love to have
But sometimes I still wake up fightin' mad
At where this road I'm headin' down might lead
I guess that's just the cowboy in me
Chorus
 DG
The urge to run, the restlessness
 DG
The heart of stone I sometimes get
 DG
The things I've done for foolish pride
 AAsusA
The me that's never satis__fied
 DGDD/F#G
The face that's in the mirror when I don't like what I see
 DAD
guess that's just the cowboy in me
Solo: D G D D A D
e|-------------------------------------------------------
B|--5s7-7-7-5-5-3-3--------------------------------------
G|------------------0h2----------------------------------
D|----------------------0~~~---0h2-2s4-4-4--4s5-2p0------
A|--------------------------------------------------4h5--
E|-------------------------------------------------------

Repeat Chorus
Verse 3
Girl, I know there's times you must have thought
There ain't a line you've drawn I haven't crossed
But you set your mind to see this love on through
I guess that's just the cowboy in you
Verse 4
We ride and never worry about the fall
I guess that's just the cowboy in us all
Outro: D G D D A D
Solo: (You can figure that one out on your own cos, I don't
feel like tabbin the whole thing out! Pretty much follows
the same as the 1st solo!)
-------------------------------

Enjoy!
--ShawneeNDN@aol.com


A Asus D D/F# G
variations - click chord images
Transpose chords:
Tuning:
Cool service:
View: Size:
A  A  A
Rating:
Layout:
  • Currently 3/5 Stars.
  • 1
  • 2
  • 3
  • 4
  • 5
 
Accuracy:
  • Currently 2.5/5 Stars.
  • 1
  • 2
  • 3
  • 4
  • 5
 
click stars to rate
Chordie recommends:
Get acoustic guitar lessons and electric guitar lessons at JamPlay.com
Songbook:
Login to add this song to your songbook
Support the artist
Preview/buy this song
MSN Music
Why this non-profit ad?

 
login to add comments/video/corrections