Chordie logo


Blue Eyes Crying In Rain-tab   Willie Nelson




Subject: CowPie Request - Blue Eyes Cryin in the Rain

Blue Eyes Crying in the Rain (Lead)

By: (Nelson,Willie)

^  - Bend
/   - Slide
E----------------------------------------------------------------------------------------------------------
B--------5----7---7/9---9^---------------5-----9^---5-----------------------------------------------
G---4---------------------------------4------------------------------------------------------------------
D---------------------------------------------------------------------------------------------------------
A---------------------------------------------------------------------------------------------------------
E---------------------------------------------------------------------------------------------------------- 

E---7---6---5-----------------------------5--7-----------7----------------------------------------------
B---9---8---7-------9--7---------------------------9----------------------------------------------------
G-------------------------------4-------------------------------------------------------------------------
D---------------------------------------------------------------------------------------------------------
A---------------------------------------------------------------------------------------------------------
E---------------------------------------------------------------------------------------------------------- 

E----------------------------------------------------------------------------------------------------------
B-------5--7----7/9---999---10---9-------------5---7---9---9^----7---5----------------------------
G--4------------------------------------4------4---------------------------------------------------------
D---------------------------------------------------------------------------------------------------------
A---------------------------------------------------------------------------------------------------------
E---------------------------------------------------------------------------------------------------------- 

E----------------------------------------------------------------------------------------------------------
B------5--------7/9---7---9---7------------7/9---7---5------------------------------------------------
G--4------4----------------------------4-----------------------------------------------------------------
D---------------------------------------------------------------------------------------------------------
A---------------------------------------------------------------------------------------------------------
E---------------------------------------------------------------------------------------------------------- 

E----------------------------------------------------------------------------------------------------------
B--5--55----4--44---3--33---2-------------------------------------------------------------------------
G---------------------------------------------------------------------------------------------------------
D---------------------------------------------------------------------------------------------------------
A---------------------------------------------------------------------------------------------------------
E----------------------------------------------------------------------------------------------------------
Blue Eyes Crying In The Rain

e----------------------------------------------
b----------------------------------------------
g---9-11-13--13-13-13^(14)-13---9-13^(14)-13-9-
d-9---------------------------9----------------
a----------------------------------------------
e----------------------------------------------

e------------------------------------ 
b---12---11-10----------------12--12- 
g-13---12---11--13-11---11/13---13---
d---------------------9-------------- 
a------------------------------------ 
e------------------------------------ 

e-------------------------------------------------------
b-------------------------------------------------------
g---9-11-13--13-13-13^(14)-13----9-11-13-13^(14)^(13)-9- 
d-9----------------------------9------------------------
a-------------------------------------------------------
e-------------------------------------------------------

e----------------------------------------------------------
b------------------------------------------4----3------3-2-
g-(14)^13-11-13-11--13-11---11/13-11-9---2----1------0---2-
d--*----------------------9------------------------------2-
a---------------------------------------3----2----2-1----0-
e----------------------------------------------------------
   *Pre bend the g string at the 13th to the 14th
    pick and release to the 13th. 



Important: The song above is NOT stored on the Chordie server. The original song is hosted at www.roughstock.com. Chordie works as a search engine and provides on-the-fly formatting. Chordie does not index songs against artists/composers will. To remove this song please click here.

This song is displayed as text-only. Transposing and tuning is only available for chordpro-songs.

Login - add to songbook

Rating click stars to rate

Layout
Accuracy

SHARE PAGE  




You need to log in to post comments