"yes"; ?> Sea And Sand by Who - guitar chords, guitar tabs and lyrics - chordie

Sea And Sand

Who



 intro

|Asus2 |Asus2 |Asus2 |Asus2 |
 gtr 1 - acoustic
|                                     |
|--0*-0--0*-0*|--0*-0--0*-0*|--0*-0--0*---|--0*-0--0*---|
|-------0-----|-------0-----|-------0---0*|-------0---0*|
|-2--------2--|-2--------2--|-2--------2--|-2--------2--|
|-------------|-------------|-------------|-------------|
|0------------|0------------|0------------|0------------|
|-------------|-------------|-------------|-------------|

 * pluck w/middle finger
|                              |
| |
 gtr 2
|                                                |
|-------------|---<12-------|-------------|---<12-------|
|-------------|<15-------<12|<14----------|<15-------<12|
|-------------|-------------|-------------|-------------|
|-------------|-------------|-------------|-------------|
|-------------|-------------|-------------|-------------|
|-------------|-------------|-------------|-------------|

 vol. pedal swells

|Asus2 |Asus2 |Asus2 |Asus2 |
Here by the sea and sand nothing ever goes as planned, I just couldn't
 gtr 1
|                                                                     |
|----0*-0---0*------|-------|--------------------|---------------------------|
|---------0------0*-|-------|--------------------|---------------------------|
|--2-----------2----|----%--|---------%----------|------------%--------------|
|-------------------|-------|--------------------|---------------------------|
|0------------------|-------|--------------------|---------------------------|
|-------------------|-------|--------------------|---------------------------|

 gtr 2
|                                                                     |
|----------------<12|<12-<17|<12-----------------|---------------------------|
|<14----------------|-------|----------------<10-|<14------------------------|
|-------------------|-------|--------------------|---------------------------|
|-------------------|-------|--------------------|---------------------------|
|-------------------|-------|--------------------|---------------------------|
|-------------------|-------|--------------------|-----------------------10\-|


 gtr 1
|D D |E E |A |Asus4 A |
Face going home, It was just a drag on my own.
 gtr 2
|                                                        |
|-----2---------|0------------------|--------------|-------5----|
|-----3---------|0------------------|----------5---|5------5----|
|-----2---------|4------------------|2---------4^--|4^\----2----|
|0----0---------|2------------------|2-------------|-------2----|
|---------------|2----------------0-|0-------------|----0--0----|
|-----------10\-|0------------------|--------------|------------|

 gtr 3 in
|                                                     |
|D D |E E |A |D/A A |
|2----2--------0|-------------------|--------------|------------|
|3----3--------0|-------------------|--------------|3-3---------|
|2----2---------|----4--------------|2-------------|2-2--2------|
|0----0---------|2-0-2--------------|2-------------|4-4--2------|
|---------------|2-0-2--------------|0-------------|0-0--0------|
|---------------|0-0-0--------------|--------------|------------|


|Asus2 |Asus2 |Asus2 |Asus2 |
They finally threw me out, my mom got drunk on stout, My dad couldn't
 gtr 1; repeat intro
    |                           |                        |
    |---0*-0---0*----|--------------|----------------|------------------------|
    |--------0-----0*|--------------|----------------|------------------------|
    |-2----------2---|-------%------|--------%-------|------------%-----------|
    |----------------|--------------|----------------|------------------------|
    |0---------------|--------------|----------------|------------------------|
    |----------------|--------------|----------------|------------------------|

 gtr 2
    |                                         |                        |
    |----------------|--------------|----------------|----------<17-----------|
    |----------------|--<12---<14---|<15-------<17---|------------------------|
    |----------------|--------------|----------------|------------------------|
    |----------------|--------------|----------------|------------------------|
    |----------------|--------------|----------------|------------------------|
    |----------------|--------------|----------------|------------------12\---|

 gtr 3; tacit
    |                                                           |

 gtr 1
|D D |E E |A D/A D/A |
stand on two feet as he lectured about morality
 gtr 2
|                                                     |
|2-----2-----------|-------------------------|---5-----------|
|3-----3-----------|-------------------------|---5-----------|
|2-----2-----------|-------------------------|---2---4^\-2---|
|0-----0-----------|--2-0-------2--0---------|---2--------4--|
|------------------|x-------2---------0----3^|0--0-----------|
|------------------|-------3-----------------|---------------|

 gtr 3
|                                                     |
|D D |E E |A D/A D/A |
|2-----2--------0--|-------------------------|---------------|
|3-----3--------0--|-------------------------|---------3-3---|
|2-----2--------4--|----4--------------------|2-2----2-2-2---|
|0-----0--------2--|2-0-2------------------x-|2-2----4-4-4---|
|------------------|2-0-2------------------x-|0-0----0-0-0---|
|------------------|0-0-0--------------------|---------------|


 gtr 1
|A |D D |E E |
And now I guess the family's complete with me hanging
 gtr 2
|                                                          |
|----------------------|----2------2-0-0---|----------------------|
|------5---------------|----3----------0---|----------------------|
|2-2---2---------------|----2--------------|----------------------|
|------2----------2----|0---0--------------|2---2-----------------|
|----0-------0-2-4-4-0-|-------------------|2-2-2--------4--2-0---|
|----------------------|-------------------|--3-0-----/4----------|

 gtr 3
|                                                          |
|----------------------|2---2--------------|----------------------|
|3-3-2----2--2---------|3---3--------------|----------------------|
|2-2-2----2--2---------|2---2--------------|4---4-----------------|
|4-4-2----2--2---------|0---0--------------|2---2-----------------|
|0-0-0----0--0---------|-------------------|2---2-----------------|
|----------------------|-----------------0-|0---0-----------------|


 gtr 12/44/4
|G D |D |A | |
'round on the streets or here on the beach.
 gtr 2
|                            |                |
|3------------2---------|-----------|-------|--------|
|3------------3---------|-----------|-------|--------|
|0------------2---------|4^\p2------|2------|--------|
|0------------0---------|-----------|2------|--------|
|-----------------------|-----------|0------|--------|
|3----------------------|-----------|-------|--------|

 gtr 3
|                            |                |
|G D |D |A | |
|3------------2---------|2----------|-------|--------|
|3------------3---------|3----------|-------|--------|
|0------------2---------|2----------|2------|--------|
|0------------0---------|0----------|2------|--------|
|-----------------------|-----------|0------|--------|
|3----------------------|-----------|-------|--------|


|Cadd9 |G/B |Am |Am |
The girl I love is a perfect dresser
 gtr 1
|                                           |
|-------3------|----0----|----0---0-----|---0---0--|
|-----3---3----|---3-3-0-|---1---0------|--1-----0-|
|---0--------0-|--0---0-0|--2---2---2---|-2---2---2|
|----------2---|---------|--------------|----------|
|3-------------|2--------|0-------------|0---------|
|--------------|---------|--------------|----------|

 gtr 2; tacit
|                                    |
 gtr 3
|                                           |
|-------3------|----0----|----0---------|----0-----|
|-----3---3----|---3-3---|---1--1-------|---1--1---|
|---0------0-0-|--0---0-0|--2-----2--2--|--2----2--|
|-----------2--|-------0-|---------2----|--------2-|
|3-------------|2--------|0-------------|0--------0|
|--------------|---------|--------------|----------|


|Fmaj7 |Em |D D|D |
Wears every fashion gets it to the tee
 gtr 1
|                                                     |
|-----0---------|-----0---------|------5---5-|--------5------|
|---1--1--------|----0--0-------|----3---3--3|------3---3----|
|--2-----2---2--|--0------0---0-|--2------2--|2---2-------2--|
|3---------3----|2----------2---|0-----------|--0----------0-|
|---------------|---------------|------------|---------------|
|---------------|---------------|------------|---------------|

 gtr 2; tacit
|                                              |
 gtr 3
|                                                     |
| | | Dsus4 D Dsus2 D |
|-----0---------|-----0---------|------2----3|----2---0---2--|
|---1--1--------|----0--0-------|----3---3--3|----3---3---3--|
|--2-----2---2--|--0------0---0-|--2------2-2|----2---2---2--|
|3---------3----|2----------2---|0----------0|----0---0---0--|
|---------------|---------------|------------|---------------|
|---------------|---------------|------------|---------------|


|Cadd9 |G/B |Am |Am |
Heavens above, I've got to match her
 gtr 1
|                                                   |
|-----3------|----0-0----|----0-0--------|----0------------|
|---3---3----|---3-3-3---|-------1-------|---0--0----------|
|-0--------0-|--0-----0--|--2-----2------|--2----2---------|
|--------2---|-----------|-2-------2-----|-2------2--------|
|3-----------|2----------|0--------------|0----------------|
|------------|-----------|---------------|-----------------|

 gtr 2
|                                                   |
|------------|-----------|---------------|-----------------|
|---5-<6----/|8/10-<10p8-|--------<10----|---<13--<15-<17--|
|------------|----------9|---------------|-----------------|
|------------|-----------|---------------|-----------------|
|------------|-----------|---------------|-----------------|
|------------|-----------|---------------|-----------------|

 gtr 3
|                                                   |
|-----0------|----0------|----0----------|----0------------|
|---3---3----|---3-3-----|---1--1--------|---1--1----------|
|-0------0--0|--0---0-0--|--2-----2------|--2----2---------|
|----------2-|-------0---|-2--------2----|-2------2--------|
|3-----------|2----------|0--------------|0----------------|
|------------|-----------|---------------|-----------------|


|Fmaj7 |Em |D |
She knows just how she wants her man to be
 gtr 1
   |                                         |
---|-----0------------|-----0----------|--5---5-----|
---|---1--1-----------|----0--0--------|---3----3---|
---|--2-----2---2-----|--0------0---0--|----2----2--|
---|3---------3-------|2----------2----|0-----------|
---|------------------|----------------|------------|
---|------------------|----------------|------------|

 gtr 2
   |                                         |
---|------------------|----------------|------------|
---|<13-----------<15-|<10--------<5---|<3----------|
---|------------------|----------------|------------|
---|------------------|----------------|------------|
---|------------------|----------------|------------|
---|------------------|----------------|------------|

 gtr 3
   |                                         |
---|-----0------------|-----0----------|---2------3-|
---|---1--1-----------|----0--0--------|--3--3----3-|
---|--2-----2---2-----|--0------0---0--|-2----2---2-|
---|3---------3-------|2----------2----|0------0--0-|
---|------------------|----------------|------------|
---|------------------|----------------|------------|


|Dsus4 D |D Dsus4 | G G G D |
Leave it to me
 gtr 1
|                                        |
|5----5----------|----3-----------|--3-3-3---2--|
|-3--3--3---3----|----3-----------|--3-3-3---3--|
|--2------2------|----2-----------|--0-0-0---2--|
|----------------|----0-----------|--0-0-0---0--|
|----------------|----------------|-------------|
|----------------|----------------|-------------|

 gtr 2
|                                        |
|-------------12-|-------------5--|------3---2--|
|----------12^---|12^-12^\p10\---7|------3---3--|
|----------------|---------------7|------0---2--|
|----------------|----------------|------0---0--|
|----------------|----------------|----------0-0|
|----------------|----------------|-------------|

 Gtr 3
|                                        |
|Dsus4 D D|D Dsus4 |Dsus4 |
|-------------2-2|2------------3--|-3-3---------|
|-------------3-3|3------------3--|-3-3---------|
|-------------2-2|2------------2--|-2-2---------|
|-------------0-0|0------------0--|-0-0---------|
|----------------|----------------|-------------|
|----------------|----------------|-------------|


 gtr 1
|A A/G A A/G A |A G G G D |
My jacket's gonna be cut slim and checked, maybe a
 gtr 2
  |                                          |
  |----------------------|-----------3-------2------|
  |----------------------|-----------3-------3------|
  |2---------------2-----|-----------0-------2------|
  |2---------------------|-----------0-------0------|
  |0------------3^-------|--3^\p0--------0-----0----|
  |----------------------|--------------------------|

 gtr 3
  |                                          |
  |----------------------|-----------3-------2------|
  |----------------------|-----------3-------3------|
  |2---2-------2--2--2---|2--2-------0-------2------|
  |2---2-------2--2--2---|2--2-------0-------0------|
  |0-----------0-----0---|0--0----------------------|
  |----3----------3------|--------------------------|


 gtr 1
|A A/G A A/G A |A G G G D |
Touch of seersucker with an open neck, I ride a
 gtr 2
|                                          |
|---------------------------|---------------------|
|----2----------------------|---------------------|
|----2-------------2--------|--------------------2|
|----2-------2-----2--------|--2---2--2/2-4-4-2h4-|
|3^----------0-3^-----3^-0--|--0---0--0/0---------|
|---------------------------|3^--3^---------------|

 gtr 3
|                                          |
|---------------------------|--------3---2--------|
|---------------------------|--------3---3--------|
|2---2--2---------2---2-----|2-2-----0---2--------|
|2---2--2---------2---2-----|2-2-----0---0--------|
|0------0-------------0-----|--0------------------|
|----3^-----------3^--------|3^-------------------|


 gtr 1
|A A/G A A/G A|A G G G D |
G.S. scooter with my hair cut neat, I wear my
 gtr 2
|                                      |
|------5-----5-----5-|--5---5-----------------|
|--------------------|------------------------|
|~---4^----4^----4^--|4^--4^------4^\-4-2--2--|
|--------------------|-------------------4----|
|--0-----------------|------------------------|
|--------------------|------------------------|

 gtr 3
|                                      |
|--------------------|-------3-3-3----2-------|
|--------------------|-------3-3-3----3-------|
|2--2---2-2-----2--2-|----2--0-0-0----2-------|
|2--2---2-2-----2--2-|----2--0-0-0----0-------|
|0------0-0--------0-|----0-------------------|
|---3^----------3^---|0-3^--------------------|


 gtr 1
|A A/G A A/G A |A |
Wartime coat in the wind and sleet.
 gtr 2
| 
|-------------------|---------------------|
|---x---------------|---------------------|
|2--x---------2----2|----2--------x-------|
|2--x-x-------2-x--2|x---2-x------x-------|
|0--0-x--0----0-x--0|x---0-x------0-------|
|-----3---------3---|3-----3---3^-----5\--|

 gtr 3
| 
|-------------------|---------------------|
|-------------------|---------------------|
|2---2-2----------2-|---------------------|
|2---2-2----------2-|---------------------|
|0---0-0----------0-|---------------------|
|--3^---------------|---------------------|


|Cadd9 |G/B |Am |Am |
I see her dance across the ballroom
 gtr 1
|                                                 |
|------3------|----0------|----0------------|---0-0------|
|----3---3----|---3-3-----|---1--1----------|--1-1-------|
|--0--------0-|--0---0---0|--2----2--2------|-2-----2----|
|---------2---|-------0h2-|--------2--------|---------2--|
|3------------|2----------|0----------------|0-----------|
|-------------|-----------|-----------------|------------|

 gtr 2
|                                                 |
|-------------|-----------|-----------------|------------|
|<5-----------|-<8-<10----|<10---<15-<13-<10|------------|
|<0-----------|-----------|-----------------|------------|
|-------------|-----------|-----------------|------------|
|-------------|-----------|-----------------|------------|
|-------------|-----------|-----------------|------------|

 gtr 3
|                                                 |
|------0------|----0------|----0------------|---0--------|
|----3---3----|---3-3-----|---1--1----------|--1-1-------|
|--0------0-0-|--0---0--0-|--2----2--2------|-2---2---2--|
|----------2--|--------0--|--------2--------|-------2----|
|3------------|2----------|0----------------|0-----------|
|-------------|-----------|-----------------|------------|


|Fmaj7 |Em |D D|D |
U.V. lights making starshine on her smile.
 gtr 1
|                                                             |
|-----0------------|-----0----------|----5----5--|5-----5------------|
|---1--1-----------|----0--0--------|-------3---3|----3-------3------|
|--2-----2---2-----|--0------0---0--|--2--2----2-|--2-------2---2----|
|3---------3-------|2----------2----|0-----------|--------0----------|
|------------------|----------------|------------|-------------------|
|------------------|----------------|------------|-------------------|

 gtr 2
|                                                             |
|------------------|----------------|---------10-|-----------10------|
|----<13p10--------|------<10-------|---------10-|-----------10------|
|------------------|----------------|-------9^\--|-----------7-------|
|------------------|----------------|------------|7-----9----7-------|
|------------------|----------------|------------|-------------------|
|------------------|----------------|------------|-------------------|

 gtr 3
|                                   D5  D   Dsus2 D           |
|-----0------------|-----0----------|------3h5-2-|---0---2-----------|
|---1--1-----------|----0--0--------|------3---3-|---3---3-----------|
|--2-----2---2-----|--0------0---0--|------2---2-|---2---2-----------|
|3---------3-------|2----------2----|0-----0---0-|---0---0-----------|
|------------------|----------------|------------|-------------------|
|------------------|----------------|------------|-------------------|


|Cadd9 |G/B |Am |Am |
I am the Face, she has to know me, (I'm)
 gtr 1
|                                                    |
|-----3--------|------0--0-----|----0-0-----|----0----------|
|---3---3------|----3--3---3---|----1--1----|---1--1--------|
|-0--------0---|--0----------2-|--2-----2---|--2----2-2-----|
|--------2-----|---------------|-2-------2--|-2------2------|
|3-------------|2--------------|0-----------|0--------------|
|--------------|---------------|------------|---------------|

 gtr 2
|                                                    |
|--------------|---------------|------------|---------------|
|--------------|---------------|------------|---------------|
|<14----<12----|<9----<7------<|2----<9-----|------<9-<7-<5-|
|--------------|---------------|------------|---------------|
|--------------|---------------|------------|---------------|
|--------------|---------------|------------|---------------|

 gtr 3
|                                                    |
|-----0--------|------0--------|----0-------|----0----------|
|---3---3------|----3--3-------|---1--1-----|---1--1--------|
|-0-------0---0|--0------0---0-|--2----2-2--|--2----2-------|
|-----------2--|-----------0---|--------2---|--------2------|
|3-------------|2--------------|0-----------|0--------0-----|
|--------------|---------------|------------|---------------|


|Fmaj7 |Em |D D|
I'm dressed up better than anyone within a mile.
 gtr 1
   |                                                 |
   |-----0----------------|-----0----------|2---------------|
   |---1--1---------------|----0--0--------|3---------------|
   |--2-----2---2---------|--0------0---0--|2---------------|
   |3---------3-----------|2----------2----|0---------------|
   |----------------------|----------------|----------------|
   |----------------------|----------------|----------------|

 gtr 2
   |                                                 |
   |----------------------|----------------|----------------|
   |----------------------|----------------|----------------|
   |

 gtr 3
   |                                                 |
   |0---------------------|0----------0-0-0|2--------3-3-3-3|
   |1---------------------|0----------0-0-0|3--------3-3-3-3|
   |2---------------------|0----------0-0-0|2--------2-2-2-2|
   |3---------------------|2--------2-2-2-2|0--------0-0-0-0|
   |----------------------|----------------|----------------|
   |----------------------|----------------|----------------|


|D |D |D G D |
Whoa, yeah
 gtr 1
|                                      |
|222----------|----------------|2---3-3-3---2-|
|332----------|----------------|3---3-3-3---3-|
|223=========-|-------%--------|2---0-0-0---2-|
|000----------|----------------|0---0-0-0---0-|
|-------------|----------------|--------------|
|-------------|----------------|--------------|

 gtr 2
|                                      |
|-------------|----------------|--------------|
|---10--10--10|10--10--10-10-10|--------------|
|---9^--9^--9^|9^--9^--9^-9^-9^|----5^--------|
|-------------|----------------|-7-----7---5--|
|-------------|----------------|------------0-|
|-------------|----------------|--------------|

 gtr 3
|                                      |
|3-----3--3--3|--3-------------|--------------|
|3-----3--3--3|--3-------------|--------------|
|2-----2--2--2|--2-------------|--------------|
|0-----0--0--0|--0-------------|--------------|
|-------------|----------------|--------------|
|-------------|----------------|--------------|


 gtr 1
|A A/G A A/G A |A A A G D |
So how come the other tickets look much better? Without a
 gtr 2
  |                                                |
  |-----------------------9~-|----9\----------------------|
  |----------------------10~-|---10\-------8-----7^-------|
  |-----------------------9~-|----9\-------7-----7^-------|
  |--------------------------|--x----------9-----7^-------|
  |0-------------------0-----|--x-------------0-----------|
  |--------------------------|----------------------------|

 gtr 3
  |                                                |
  |--------------------------|-------------3-----2--------|
  |--------------------------|-------------3-----3--------|
  |2---2---2--2--2---2--2----|2--2---2-----0-----2--------|
  |2---2---2--2--2---2--2----|2--2---2-----0-----0--------|
  |0-------0-----0------0----|---0------------------------|
  |----3------3------3-------|3------3-----3--------------|


|A A/G A A/G A |A A A G D |
penny to spend they dress to the letter and
 gtr 2
|                                          |
|---5------------------|--------------------------|
|---5---x--------------|--------------------------|
|---2---x--------------|-----------2-0------------|
|2--2---x--------------|--------------------------|
|0------x--------------|-------3^---------3^p0----|
|----------------------|----------------------3^~~|

 gtr 3
|                                          |
|----------------------|----------------3-3---2---|
|----------------------|----------------3-3---3---|
|2---2--2------2--2----|2--2---2--------0-0---2---|
|2---2--2------2--2----|2--2---2--------0-0---0---|
|0------0---------0----|---0----------------------|
|----3---------3-------|3------3--------3-3-------|


|A A/G A A/G A |A A A G D |
How come the girls come on, oh, so cool
 gtr 2
|                                         |
|---5---------------------|----------------------|
|---5---------------------|----9---9-/9--7--7\---|
|---2---------------------|----10--10/10-8--7\---|
|2--2---------------------|----11--11/11-9--7\---|
|0------------------------|0-------------------0-|
|-------------------------|----------------------|

 gtr 3
|                                         |
|-------------------------|-------------3-3--2---|
|-------------------------|-------------3-3--3---|
|2---2--2------2--2-------|2--2---2-----0-0--2---|
|2---2--2------2--2-------|2--2---2-----0-0--0---|
|0------0---------0-------|---0------------------|
|----3---------3----------|3------3-----3-3------|


 gtr 1
|A A/G A A/G A |A |
Yet when you meet 'em, every one's a fool?
 gtr 2
   |                                           |
---|------------------------|-------------------------|
---|------------------------|-------------------------|
---|--2-~-------------------|-------------------------|
---|------------------------|-------------------------|
---|3^----------------------|-------------------------|
---|------------------------|-------------------------|

 gtr 3
   |                                           |
---|------------------------|-------------------------|
---|------------------------|-------------------------|
---|2---2--2-2----------2--2|-------------------------|
---|2---2--2-2----------2--2|-------------------------|
---|0------0-0-------------0|-------------------------|
---|----3---------------3---|-------------------------|


|Asus2 |Asus2 |Asus2 |Asus2 |
Come sleep on the beach, keep within my reach I just want to
 gtr 1; repeat intro ptrn
|                                              |
|----0*--0----0*-----|----------|--------------|-------------------------|
|-----------0------0*|----------|--------------|-------------------------|
|--2-------------2---|----%-----|------%-------|---------%---------------|
|--------------------|----------|--------------|-------------------------|
|0-------------------|----------|--------------|-------------------------|
|--------------------|----------|--------------|-------------------------|

 gtr 2
|                                       |                         |
|--------------------|----------|--------------|-------------------------|
|--------------------|----------|--------------|---------17-----14-------|
|--------------------|----------|--------------|------16^--^16\---14-----|
|--------------------|----------|--------------|--------------------14\--|
|--------------------|----------|--------------|-------------------------|
|--------------------|----------|--------------|-------------------------|


 gtr 1
|D D D D E|E E E E |A A A |A |
die with you near I'm feeling so high with you here.
 gtr 2
|                                                             |
|--------0h2p0-0-|--0---------------|-------------|------5-----------|
|----------------|--0---------------|-------------|------5-----------|
|----------------|--1----------0----|-----4^-4-2-2|---2--2-----------|
|----------------|-------------0----|2-----------2|---2--2-----------|
|----------------|2--------2-4---4-0|0-----------0|------0-----------|
|---------------0|0-----/4----------|-------------|------------------|

 gtr 3
|                                                             |
|D D E |E E |A D/A| D/A A |
|2----2----------|------------------|-------------|------------------|
|3----3----------|----0-------------|------------3|----3-p2----------|
|2----2---------1|----1-------------|2-----------2|----2-p2----------|
|0----0---------2|--0-2----------x--|2-----------4|--4-4-p2----------|
|---------------2|--0-2----------x--|0-----------0|--0-0--0----------|
|----------------|--0-0-------------|-------------|------------------|


|Asus2 |Asus2 |Asus2 |
I'm wet and I'm cold but thank God I ain't old
 gtr 1; repeat intro ptrn
|                              |
|---0*--0---0*-----|---------------|---------------------|
|---------0------0*|---------------|---------------------|
|--2-----------2---|-------%-------|----------%----------|
|------------------|---------------|---------------------|
|0-----------------|---------------|---------------------|
|------------------|---------------|---------------------|

 gtr 2
|                                                 |
|--(5)-------------|---------------|---------------------|
|--(5)-------------|---------------|-------------<12--<14|
|--(2)-------------|---------------|---------------------|
|--(2)-------------|---------------|---------------------|
|--(0)-------------|---------------|---------------------|
|------------------|---------------|---------------------|

 fbk
|                                                   |
 gtr 3; tacit
|    |               |                     |

|Asus2 |D D |E E |A D/A |
Why didn't I say what I mean? I should have split home at fifteen
 gtr 1
|                                                                      |
|--0*-0---0*----|2--2---------------|0--0------0-----0-----|------------------|
|-------0-----0*|3--3---------------|0--0------0-----0-----|--------------3--3|
|-2---------2---|2--2---------------|4--4------4-----4--2-2|2---2-2-2--2--2--2|
|---------------|0--0--------------2|2--2------2-----2--2-2|2---2-2-2--2--4--4|
|0--------------|------------------2|2--2------2-----2--0-0|0---0-0-0--0--0--0|
|---------------|------------------0|0--0------0-----0-----|------------------|

 gtr 2
|                                                                      |
|---------------|---2\/~------------|0---------------------|------------------|
|----<14--<17---|---3\/~------------|0----------x----------|------------------|
|---------------|---2\/~------------|1----------x----------|2-----------------|
|---------------|0--0\/~------------|2----------x-------2--|2-----------------|
|---------------|-----------------2-|-------------------2--|0-----------------|
|---------------|-----------------0-|-------------------3^-|------------------|

 gtr 3
|                                                                      |
| |D D |E E |A D/A |
|---------------|2--2---------------|----------------------|------------------|
|---------------|3--3---------------|----------------------|-----------3-----3|
|---------------|2--2---------------|4--4------------------|-----------2-----2|
|---------------|0--0---------------|2--2------------------|2----------4-----4|
|---------------|-------------------|2--2-----------------0|0-0--------0-----0|
|---------------|-------------------|0--0------------------|------------------|


 gtr 1
|A |D D D D |E E E E |
There's a story that the grass is so green
 gtr 2
|                                                               |
|--9--9--9--9--9--9--9-\------|2-----------2---------|-0---------------|
|--10-10-10-10-10-10-10\------|3-----------3---------|-0---------------|
|--9--9--9--9--9--9--9-\------|2-----------2---------|-1---------------|
|-----------------------------|0-----0-----0---------|2----------------|
|0----------------------------|------0---------------|2-------2-3^p0---|
|--9--9--9--9--9--9--9\-------|------------------10\-|0--0-/4----------|

 gtr 3
|                                                               |
|D/A A A A |D D |E E |
|-----------------------------|2---2-----------------|---0-------------|
|-3---------------------------|3---3-----------------|---0-------------|
|-2-2---------------2--2------|2---2-----------------|1--1-------------|
|-4-2---------------2--2------|0---0-----------------|2--2-------------|
|-0-0---------------0--0------|----------------------|2--2-------------|
|-----------------------------|----------------------|0--0-------------|


 gtr 1
|G D |D A | | |
What did I see? Where have I been?
 gtr 2
|                                                           |
|3------------2-------------|------------5--------|--------|-------|
|3------------3-------------|------------5--------|--------|-------|
|0------------2-------------|4^\p2-------2--------|--------|-------|
|0------------0-------------|------------2--------|--------|-------|
|---------------------------|------------0--------|--------|-------|
|3--------------------------|---------------------|--------|-------|

 gtr 3
|                                                           |
|3------------2-------------|---------------------|--------|-------|
|3------------3-------------|3--------------------|--------|-------|
|0------------2-------------|2-----------2--------|--------|-------|
|0------------0-------------|0-----------2--------|--------|-------|
|---------------------------|------------0--------|--------|-------|
|3--------------------------|---------------------|--------|-------|


 gtr 12/44/4
|G D |D |A | | |
Nothing is planned by the sea and the sand
 gtr 2
|                                                      |
|-------------------------|-----5------|------|-------|-------|
|-------5-----------------|------8p5---/10~~~-|-------|-------|
|7^\p5--------------------|7^----------|------|-------|-------|
|-----7-----7-------------|------------|------|-------|-------|
|-------------------------|------------|------|-------|-------|
|-------------------------|------------|------|-------|-------|

 gtr 3
|                                                      |
|G D |D |A5 | | |
|3----------2-------------|2-----------|5-----|-------|-------|
|3----------3-------------|3-----------|5-----|-------|-------|
|0----------2-------------|2-----------|2-----|-------|-------|
|0----------0-------------|0-----------|2-----|-------|-------|
|-------------------------|------------|0-----|-------|-------|
|3------------------------|------------|------|-------|-------|


 outro solo
 gtr 1
//G G G D |A A/G A A A/G A|A A A A A G D |
 gtr 2
|                                                         |
|-----^20\---20^-^20\--20----|17 17\--8^-8-5---|-----------------|
|----------------------------|----------------5|8--8--8-7--7-5-5-|
|----------------------------|-----------------|-----------------|
|----------------------------|-----------------|-----------------|
|----------------------------|-----------------|-----------------|
|----------------------------|-----------------|-----------------|

 gtr 3
|                                                         |
| G G G D |A A/G A A A/G A| G D |
|-------------------3-3-3--2-|-----------------|------------3--5-|
|-------------------3-3-3--3-|-----------------|--------5-5-3--3-|
|-------------------0-0-0--2-|2-----2-2-----2--|--------2-2-0--2-|
|-------------------0-0-0--0-|2-----2-2-----2--|--------2-2-0--0-|
|----------------------------|0-----0-0-----0--|--------0-0------|
|-------------------3-3-3----|----3------3^----|------------3----|


 gtr 1
|A A/G A A/G A|A A A G D |A A/G A A/G A|A A A G D |
 gtr 2
|                                                                  |
|----------------|------------------|------------5---|--------------------|
|----------------|------------------|------------5---|-0------------------|
|5^--------------|-------------5^---|----2/2---x-2---|-0------------12-10^|
|--7-------------|--------5-6-7--7-7|~-2/2/2---x-2---|-0---12^\p10--------|
|----------------|--5-6-7-----------|--0/0/0---x-0---|------------12------|
|----------7/\---|------------------|----------------|--------------------|

 gtr 3
|                                                                  |
|A5 A A/G A A/G A|A G G G D |A A A/G A A/G A|A A/G A G D |
|5-------5-------|---------3-3-3--2-|----------------|------------3--2----|
|5-------5-------|---------3-3-3--3-|----------------|------------3--3----|
|2-----2-2-------|2--------0-0-0--2-|2----2-2------2-|---2----2-2-0--2----|
|2-----2-2-------|2--------0-0-0--0-|2----2-2------2-|---2----2-2-0--0----|
|0-----0-0-----0-|0--------x--------|0----0-0------0-|---0----0-0---------|
|-----------3^---|---------3-3-3----|--3^-------3^---|3^----------3-------|


 gtr 1
|A A/G A A/G A|A A A G D |A A/G A A/G A|A A A G D |
I'm the Face if you want it, babe. I'm the Face if you
 gtr 2
|                                                                      |
|----------------|------------10-10-10---|---9-^----9-^--9|^--9-^-------------|
|----------------|--0---------8--8--8----|---10^----10^-10|^--10^---7------5--|
|-----0--2-------|--0---------7--7-------|---9-^----9-^--9|^--9-^---7------5^-|
|-----0--2-------|--0--------------------|----------------|---------7-----7---|
|12\-0---0-------|-----------------------|0-----0--0--0-0-|0-0--0-------------|
|----------------|------------------8\---|----------------|-------------------|

 gtr 3
|                                                                      |
|A5 A/G A A/G A| G G D |A5 | G D |
|----------------|-----------3-3-3--2----|5----------5-5--|--------3-3-3--2---|
|5------5-5------|-----------3-3-3--3---5|5-------5--5-5--|--------3-3-3--3---|
|2------2-2----2-|-x----x----0-0-0--2-2-2|2-------2--2-2--|--------0-0-0--2---|
|2------2-2----2-|-x----x----0-0-0--0-2-2|2---2---2--2-2--|--------0-0-0--0--2|
|0------0-0----0-|-x----x-------------0-0|0---0---0--0-0--|----------------0-0|
|----3-------3^--|-3---------3-3-3-------|----------------|--------3-3-3------|


 gtr 1
|A A/G A A/G|A5 A A G D |A A/G A A/G A|A A A G D |
want it... I'm the Face if you want it, babe I'm the Face if you
 gtr 2
|                                                                      |
|--9-^--9-^-----9|^---9-^--7^---------|-----------------|---------------------|
|--10^--10^----10|^---10^--8^------5--|-----------------|---------------------|
|--9-^--9-^-----9|^---9-^--7^---7--5^-|-----------------|---------------------|
|----------------|--------------7-----|7--------7-7----7|------7/7-7/7--7/7---|
|0---0-0---0-0---|0-0----0------------|-----------------|-----0---0----0------|
|----------------|--------------------|-----5--------5--|---------------------|

 gtr 3
|                                                                      |
|A5 |A5 G D |A A/G A A/G | G G G D |
|5-------5---5--5|5--------3-3-3---2--|-----------------|--------3-3-3---2----|
|5----5--5---5--5|5--------3-3-3---3--|-----------------|--------3-3-3---3----|
|2----2--2---2--2|2--------0-0-0---2--|2---2-2-2----2---|--------0-0-0---2----|
|2----2--2---2--2|2--------0-0-0---0--|2---2-2-2----2---|--------0-0-0---0----|
|0----0--0---0--0|0-------------------|0---0---0----0---|---------------------|
|----------------|---------3-3-3------|--3---3---3^-----|--------3-3-3--------|


 gtr 1
|A A/G A A/G A |A A A G D |A A/G A |A A A G D |
want it, I'm the Face if you want it I'm the Face if you
 gtr 2
|                                                                          |
|-------------------|----------------------|-----9-----9-----|9-------------------|
|-------------------|----------------------|-----10----10----|10-----7^---5-------|
|-------------------|-------------------5^-|-----9--0--9--0--|9------7^---5^------|
|7/7-7/7---7/7-7/7--|7/7-7/7----7/7-7----7-|--------0-----0--|-------7^--7-----7--|
|---0----0---------0|--------0-------0-----|-0------0-0---0-0|--------------------|
|-------------------|----------------------|-----------------|--------------------|

 gtr 3
|                                                                          |
|A | G D |A | G D |
|-------------------|-----------3-3-3--2---|-----------------|--------3-3-3--2----|
|-------------------|-----------3-3-3--3---|-----------------|--------3-3-3--3----|
|2----2-2-------2---|-----------0-0-0--2---|2----2-2------2--|--------0-0-0--2----|
|2----2-2-------2---|-----------0-0-0--0---|2----2-2------2--|--------0-0-0--0----|
|0----0-0-------0---|----------------------|0----0-0------0--|--------------------|
|---3^-------3^-----|-----------3-3-3------|---3-------3^----|--------3-3-3-------|


 gtr 1
|A A/G A A/G A|A G G G D |A A/G A A/G A|A A A G D |
Want it, babe
 gtr 2
|                                                                       |
|----9----9------|9---7-----------|----------------|---------------------------|
|----10---10-----|10--8---5-------|----------------|--^7\-7p5------------------|
|----9-0--9-0----|------7-5^------|-7^\5--7-5^-----|---------7--7-5-6----------|
|------0----0----|------7----7~---|------7----7-7--|-----------------7p5-7--5-5|
|0------0----0---|----------------|0---------------|---------------------------|
|----------------|----------------|----------------|---------------------------|

 gtr 3
|                                                                       |
|A | G G G D |A5 A/G A A/G A |A/G A G D A5 |
|----------------|-------3-3-3--2-|----------------|-------------------3--2---5|
|----------------|-------3-3-3--3-|----------------|-------------------3--3---5|
|2----2-2------2-|----2--0-0-0--2-|2----2-2---2--2-|--2----------------0--2-2-2|
|2----2-2------2-|----2--0-0-0--0-|2----2-2---2--2-|--2----------------0--0-2-2|
|0----0-0------0-|----------------|0----0-0------0-|--0---------------------0-0|
|---3-------3^---|-------3-3-3----|---3^------3^---|3^-------------------------|


 gtr 1
|A A/G A A/G A |A A A G D |A A/G A A/G A |A A A G D |
 gtr 2
|                                                                              |
|---------------------|------------------|----------------|---------------------------|
|---------------------|------------------|----------------|---------------------------|
|--5^p0-5^---5^-5^--5-|--^7\p5h7-5-------|----------------|---------------------------|
|7-----7---7---7--7---|-----------7------|5-7-------------|17h19-19/19-19/19-19/19--19|
|---------------------|-------------5-5-7|----------------|---------------------------|
|---------------------|------------------|----------------|---------------------------|

 gtr 3
|                                                                              |
|A5 A5 A5 | A A G D A A|A5 A5 G A |G A A5 G A A5 G G G D |
|5--------------5---5-|----------3-------|5---------5-----|-----5-------------3--2----|
|5--------------5---5-|----------3--3---5|5---------5-----|5----5-------------3--3----|
|2--------------2---2-|------2-2-0--2-2-2|2---------2-2---|2----2---------0-0-0--2----|
|2--------------2---2-|-2----2-2-0--0-2-2|2---------2-2---|2----2---------0-0-0--0----|
|0--------------0---0-|-0----0-0------0-0|0--3^-0-0-0-3^-0|3^-0-0--0-----------------0|
|---------------------|------------------|----------------|-------------------3-------|


 gtr 1
|A A/G A A/G A|A G G G D |A A/G A A/G A |A G G G D |
 gtr 2
|                                                                         |
|----------------|-------------------------|----------------|--17-19-19^-19^-17--|
|----------------|-------------------------|----------------|------------------20|
|17-----------19^|^19--19^-19---19----17-19|19^--17-17------|19------------------|
|--19-19---------|------------19-----------|--------19\-----|--------------------|
|----------------|-------------------------|----------------|--------------------|
|----------------|-------------------------|----------------|--------------------|

 gtr 3
|                                                                         |
|A A/G A5 A/G A|5 G G G G D |A A5 G A A5 G A |A5 G A A5 G G D |
|--------5------5|---5-----3-3-3---2-------|--5------5-----5|-----------3--2-----|
|--------5------5|---5-----3-3-3^--3-------|--5------5-----5|-----------3--3-----|
|--2-----2------2|---2-----0-0-0---2-------|2-2--0-2-2-0-2-2|-------2-2-0--2-----|
|--2-2---2------2|---2-------------0-------|2-2--0-2-2-0-2-2|-------2-2-0--0--2-2|
|0-0---0-0----0-0|---0-0-----------------0-|0-0--0-0-0-0-2-0|-------0-0-------0-0|
|----3^-----3^---|-------------------------|----------------|--------------------|


 gtr 1
|A A/G A |A A G G G D D |A A/G A A/G A|A A G G G D |
If you
 gtr 2
|                                                                 |
|17--0-------|-------------------------|----------------|----------------|
|------------|17-----------------------|--------------^7|\---5-----------|
|-------16^--|---16^\-16-14--16^^-16^\-|14--------------|------5^--------|
|------------|-------------------------|----------------|---------7~-----|
|------------|-------------------------|----------------|----------------|
|------------|-------------------------|----------------|----------------|

 gtr 3
|                                                                 |
|A5 A5 A5 |A G G G G G D |A5 A A5 |A5 A G G D |
|5--5---5----|-----3-3-3---3-3-3--2----|5---------5-----|5-----------3-2-|
|5--5---5----|-----3-3-3---3-3-3--3----|5---------5-----|5-----------3-3-|
|2--2---2----|-----0-0-0---0-0-0--2----|2---2-----2-----|2--2--2-2-2-0-2-|
|2--2---2----|-----0-0-0---0-0-0--0----|2---2-----2-----|2--2--2-2-2-0-0-|
|0--0---0--0-|-----------0-3^-3^\p0--0-|0---0-----0-----|0--0--0-0-0-----|
|------------|3^3^-3^3^3^--------------|----------------|----------------|


 gtr 1
|A A/G A A/G A |A G G G D |A A/G A |A G G G D |
want it, if..it, if...it, if...it, if ...it, if you want it
 gtr 2
|                                                                       |
|--------------------|-----------------|----------------|----------------------|
|--------------------|----------------x|----------------|----------------------|
|--------------------|--------5^------x|--x------x------|x-------x-------------|
|----------5-6-7-----|--5-6-7---7-7~--x|--x-7~---x-7~---|x-7~----x-7~----------|
|----5-6-7-------5-6-|7----------------|----------------|----------------------|
|--------------------|-----------------|----------------|----------------------|

 gtr 3
|                                                                       |
|A5 A5 A A5 | |A | G |
|5--5-----5----------|5------------2---|9-----9-----9---|--9---7--9-----7--7---|
|5--5-----5----------|5------------3---|10----10----10--|--10--8--10--8-8--8---|
|2--2-----2----------|2-----2-2----2-2-|------9-----9---|--9---7--9---7-7--7---|
|2--2-----2----------|2-----2-2----0-0-|--------0-----0-|-------------0--------|
|0--0---0-0------0---|0-0---0-0-0----0-|--------0-----0-|--------------------0-|
|--------------------|-----------------|---9------9-----|9---------------------|


 gtr 1
|A A/G A A/G A|A G G G D |A A/G A A/G A |A G G G D |
want it If you want it If you want it? Ah, I'm the Face
 gtr 2
|                                                                  |
|----------------|--5-------7~----|---------------------|-----------------|
|x-------x-------|x-5^------7~---x|x-----x-----x----x---|-----------------|
|x-------x-------|x-5^----x-7~---x|x-----x-----x----x---|-----x-x-5-----5^|
|x-7~----x-7~----|x---7~--x------x|x--7--x--7--x--7-x--7|---7-x-x-7-x-7---|
|----------------|----------------|---x-----x-----x----x|---x-x-----------|
|----------------|----------------|---5-----5-----5----5|---5-------------|

 gtr 3
|                                                                  |
|--9-----9-----9-|--9---7---7-7-7-|---9-----9-----9-----|---9------7-7-7-7|
|--10----10----10|--10--8---8-8-8-|---10----10----10--0-|---10-----8-8-8-8|
|--9-----9-----9-|--9-------7-7-7-|---9-----9-----9---0-|---9------7-7-7-7|
|----------0-----|0---------------|-------------------0-|----------0-0-0-0|
|0---0-----0-----|0--0----0------0|0----0------0--------|0-----0-0--------|
|------9-----9---|-9--------------|-------9------9------|-9---------------|


 gtr 1
|A A/G A A/G A|A G G G D |A A/G A A/G A |A G G G D |
I'm the Face But I'm the
 gtr 2
|                                                                |
|----------------|------------------5-5-|5---------------|----------3---|
|----------------|------------------5-5-|5---------------|x--x---x--3-5\|
|x--5^-----------|-----------<2-----2-2-|2--------x------|x--x---x--0-5\|
|7------7--------|-----------<2-----2-2-|2--------x------|x--2---x--x-5\|
|----------------|-----------<0-----0-0-|0--------x------|---0----0-x---|
|----------------|----------------------|-----------10\--|--------------|

 gtr 3
|                                                                |
|--9-----9----9--|--9-------7-7-7---2---|5--5-----------|-------3-3-3-2-|
|--10----10---10-|--10------8-8-8---3---|5--5-----------|-------3-3-3-3-|
|--9-----9----9--|--9-------7-7-7---2---|2--2-----2---2-|--2----0-0-0-2-|
|----------------|------------------0---|2--2--2--2-2-2-|2-2----0-0-0-0-|
|----0-----0-----|0----0-0--------------|0--0-----0---0-|--0------------|
|9-----9-----9---|-9--------------------|------3----3---|3---3--3-3-3---|


 gtr 1
|A |A G G G D |
Face If you...
 gtr 3
|                           |
|------------|---------------------|
|------------|---------------------|
|------2---2-|----2----------------|
|------------|---------------------|
|3^\p0---0--0|-3^--3^\p0--0--3^----|
|------------|----------3^---------|

 gtr 3
|                           |
|A A/G A A |A A/G A G G D |
|------------|-----------3-----2---|
|------------|-----------3-----3---|
|--2---------|-----------0-----2---|
|--2---------|--2--------0-----0---|
|--0-----0-3^|--0----0-------------|
|3^----3^----|----3^---------------|


=============
litgo@aol.com




variations - click chord images
Transpose chords:
Tuning:
Cool service:
View: Size:
A  A  A
Rating:
Layout:
  • Currently 0/5 Stars.
  • 1
  • 2
  • 3
  • 4
  • 5
 
Accuracy:
  • Currently 2.8/5 Stars.
  • 1
  • 2
  • 3
  • 4
  • 5
 
click stars to rate
Chordie recommends:
Learn to play guitar with video-based, online guitar lessons at JamPlay.com
Songbook:
Login to add this song to your songbook
Support the artist
Preview/buy this song
MSN Music
Why this non-profit ad?

 
login to add comments/video/corrections