D*            Dm                           ---------------------------          


 DDmD12127779
 I don't know...but it feels like           A  12   12   7   5   5  9
A E 10 10 5 5 5 7
The end
CHORUS
 DA
 Why don't'cha tell me
 DA
 Why don't'cha tell me
 DA
 Why don't'cha tell me
 BD
What went wrong...what went wrong
 Dm7A
 Don't'cha think we can work it out tonight...
VERSE 2
 DDm7
 Where'd you go...it's where we've grown don't tell me
 A
It's gone
 DDm7
 It's just a bend in the road...but this road always
 A
Goes on
CHORUS
(SOLO)
[---------------------------------5h7-5---5-5-----------------]
[-------5-5h7-5h7---------------5-------7---7-5---------------]
[---4h6-----------6h4---4---4h6-------------------6h4---4-----]
[-7-------------------7---7---------------------------7---7---]
[-------------------------------------------------------------]
[-------------------------------------------------------------]
[-------------------5-5h7-5-----------------------------------]
[-----5-5h7-5h7-5h7---------7-5-5h7-5-------------------------]
[-4h6---------------------------------6-4---------------------]
[-----------------------------------------7-------------------]
[-------------------------------------------------------------]
[-------------------------------------------------------------]

(Note: Every note is right, listen to the song to find out when the
fist part comes in and for timing, it's kinda subtle.)
 DDm7
 You don't wanna see me...you don't wanna talk on
 A
The telephone
 DDm7
 I wanna see you...its just that I don't wanna see
 A
You go (I wanna see you go...)
CHORUS
 DA
 Why don't'cha tell me
 DA
 Why don't'cha tell me
 DA
 Why don't'cha tell me
 BD
What went wrong...what went wrong
 Dm7
 Don't'cha think we can work it out


A B D Dm Dm7
variations - click chord images
Transpose chords:
Tuning:
Cool service:
View: Size:
A  A  A
Rating:
Layout:
  • Currently 0/5 Stars.
  • 1
  • 2
  • 3
  • 4
  • 5
 
Accuracy:
  • Currently 0/5 Stars.
  • 1
  • 2
  • 3
  • 4
  • 5
 
click stars to rate
Chordie recommends:
Check out JamPlay.com for online video guitar lessons
Songbook:
Login to add this song to your songbook
Support the artist
Preview/buy this song
MSN Music
Why this non-profit ad?

 
login to add comments/video/corrections