Guitar Tabs, Chords and Lyrics


Out On The Tiles   Led Zeppelin



| Ultimate Guitar Tabs Archive - your #1 source for tabs!               |
| http://www.ultimate-guitar.com/                                       |
|                                                                       |
| Over 200,000 guitar, guitar pro and bass tabs! Also lessons, news,    |
| columns and guitar forums!                                            |


Artist: Led Zeppelin
Song: Out On The Tiles


Led Zeppelin - Out On The Tiles
Written By: Jimmy Page, Robert Plant and John Bonham
Tab By: T_DUNC (Email: t_dunc@hotmail.com)

This is how I play the song from start to finish. This isn't my first tab but it's the 
I've submitted so leave any criticism you feel.

4/4 Standard Tuning
e|-------------------------------|-------------|
B|-------------------------------|-------------|
G|-------------------------------|-------------|
D|-------------------------------|-------------|
A|-------------------------------|-------------|
E|3-3-3-3-3-3-3-3-2-2-2-2-2-2-2-2|5-5--5-5--5-5|

e|----------|-------------------------------|
B|----------|-------------------------------|
G|----------|-------------------------------|
D|------4-1~|2-1-2-1-2-1--------------------|
A|--1-4-----|------------4-0-2-0-2-0-2-3-2-0|
E|2---------|-------------------------------|

e|----------|-------------------------------|
B|----------|-------------------------------|
G|----------|-------------------------------|
D|------4-1~|2-1-2-1-2-1--------------------|
A|--1-4-----|------------4-0-2-0-2-0-2-3-2-0|
E|2---------|-------------------------------|

e|----------|---------------------------------|
B|----------|---------------------------------|
G|----------|---------------------------------|
D|------4-1~|2-1-2-1-2-1----------------------|
A|--1-4-----|------------4-2-4-2-4-2-4-2-0----|
E|2---------|------------------------------3--|

e|----------------------|-----|----------|
B|----------------------|-----|----------|
G|----------------------|-----|----------|
D|---------------4--2--4|-2--4|------4-1~|
A|------------0--4--2--4|-2--4|--1-4-----|
E|5-4-5-4-2-4----2--0--2|-0--2|2---------|

e|----------------------------------|----------|
B|----------------------------------|----------|
G|----------------------------------|----------|
D|2-1-2-1-2-1-----------------------|------4-1~|
A|------------4-0-2-0-2-0-2-3-2-0---|--1-4-----|
E|----------------------------------|2---------|

e|-------------------------------|----------|
B|-------------------------------|----------|
G|-------------------------------|----------|
D|2-1-2-1-2-1--------------------|----4-4-1~|
A|------------4-0-2-0-2-0-2-3-2-0|2-1-------|
E|-------------------------------|----------|

e|-------------------------------|-------------|
B|-------------------------------|-------------|
G|-------------------------------|-------------|
D|2-1-2-1-2-1--------------------|-------------|
A|------------4-2-4-2-4-2-4-2-0--|------------0|
E|------------------------------3|5-4-5-4-2-4--|

e|----------|----------0|
B|----------|----------0|
G|----------|----------1|
D|4-2-4--2-4|----------2|
A|4-2-4--2-4|----------2|
E|2-0-2--0-2|0-0-0-0-0-0|

e|--------0----------0|--------0----------0|
B|--------2----------2|--------0----------0|
G|--------2----------2|--------1----------1|
D|--------2----------2|--------2----------2|
A|0-0-0-0-0--0-0-0-0-0|--------2----------2|
E|--------------------|0-0-0-0-0--0-0-0-0-0|

e|--------0----------0|--------0----------|
B|--------2----------2|--------0----------|
G|--------2----------2|--------1----------|
D|--------2----------2|--------2----------|
A|0-0-0-0-0--0-0-0-0-0|--------2--0-0--0-0|
E|--------------------|0-0-0-0-0----------|

e|------------------0|--------0----------0|
B|------------------0|--------2----------2|
G|------------------1|--------2----------2|
D|------------------2|--------2----------2|
A|0-0--0-0----------2|0-0-0-0-0--0-0-0-0-0|
E|----------0-0-0-0-0|--------------------|

e|--------0----------0|--------0----------0|
B|--------0----------0|--------2----------2|
G|--------1----------1|--------2----------2|
D|--------2----------2|--------2----------2|
A|--------2----------2|0-0-0-0-0--0-0-0-0-0|
E|0-0-0-0-0--0-0-0-0-0|--------------------|

e|--------0|------------------|--------------------|
B|--------0|------------------|--------------------|
G|--------1|------------------|--------------------|
D|--------2|------------------|--------------------|
A|--------2|------------------|--------------------|
E|0-0-0-0-0|5-5--5-5--5-5--5-5|3-3-3-3-3--2-2-2-2-2|

e|----------------|--------------------|
B|----------------|--------------------|
G|----------------|--------------------|
D|----------------|--------------------|
A|----------------|--------------------|
E|5-5--5-5--5-5--5|3-3-3-3-3--2-2-2-2-2|

e|---------------------------------|
B|---------------------------------|
G|---------------------------------|
D|---------------------------------|
A|---------------------------------|
E|5-5--5-5--5-5--5-5--5-5--5-5--5-5|

(Repeat and Fade Out)
e|------------------|------------------|
B|------------------|------------------|
G|------------------|------------------|
D|2------5--2-2----5|2------5--2-2----5|
A|2------5--2-2----5|2------5--2-2----5|
E|0--0-0-3--0-0--0-3|0--0-0-3--0-0--0-3|

END

+--------------------------------------------------------------------------+
| This file is the author's own work and represents their interpretation   |
| of the song. You may only use this file for private study, scholarship,  |
| or research.                                                             |
+--------------------------------------------------------------------------+



Important: The song above is NOT stored on the Chordie server. The original song is hosted at www.ultimate-guitar.com. Chordie works as a search engine and provides on-the-fly formatting. Chordie does not index songs against artists/composers will. To remove this song please click here.

This song is displayed as text-only. Transposing and tuning is only available for chordpro-songs.

Login - add to songbook

Rating click stars to rate

Layout
Accuracy

SHARE PAGE  




You need to log in to post comments