-------------------------------------------------------------------------------
			     My List - The Killers
-------------------------------------------------------------------------------
Tabbed by: "Big Curtis" Sokolinski
Email:  sokolinski@alumni.purdue.edu
<br />
Tuning: Standard
<br />
Good song here, and good tabs - its correct, enjoy...and keep on rockin' in 
the free world.
<br />


               *(1:59)
               "Sometimes it gets hard, and don't you know?..."       
e|-------------0-------------------------------------------------------------|
B|-------------1-------------------------------------------------------------|
G|-------------2-------------------------------------------------------------|
D|-------------2-------------------------------------------------------------|
A|-------------0-------------------------------------------------------------|
E|---------------------------------------------------------------------------|
               
   *(2:07)                                                     (1..2..3.4)
e|---------------------3---3---3---3-------3---3---3---3---------------------|
B|-5---5---5---5-------5---5---5---5-------6---6---6---6-------5---5----5----|
G|-5---5---5---5-------3---3---3---3-------3---3---3---3-------3---3--2-5----|
D|-5---5---5---5-------5---5---5---5-------5---5---5---5-------5---5--2-5----|
A|-3---3---3---3-------3---3---3---3-------3---3---3---3-------3---5--0-3----|
E|-----------------------------------------------------------------3---------|
 
                                         ***alternate chord listed below
e|---------------------------------------------------------------------------|
B|-7--7--7------7-----5--5--5------5-----8--8--8-/-10-8----5--5--5-5-5-------|
G|-7--7--7-/-9--7-----5--5--5-/-7--5-----7--7--7-/-9--7----5--5--5-5-5-5-----|
D|-7--7--7-/-9--7-----5--5--5-/-7--5-----5--5--5-/-7--5----5--5--5-5-5-5-----|
A|-5--5--5-/-7--5-----3--3--3-/-5--3-----5--5--5------5----3--3--3-3-3-3-----|
E|---------------------------------------------------------------------3-----|
<br />
   *(3:04)
e|-------------------------------------------------------------------------X2|
B|---------------------------------------5---5---5---5---------------------X2|
G|-2---2---2---2------2---2---2---2------5---5---5---5------4---4---4---4--X2|

</div>
<div id="secondcol">

D|-2---2---2---2------3---3---3---3------5---5---5---5------5---5---5---5--X2|
A|-0---0---0---0------3---3---3---3------3---3---3---3------5---5---5---5--X2|
E|--------------------1---1---1---1------3---3---3---3------3---3---3---3--X2|
<br />
   *(3:18:50)   
e|---------------------------------------------------------------------------|
B|-5--5--5--5------9--9--9--9------10--10--10--10-----12---12---12---12------|
G|-5--5--5--5------9--9--9--9------10--10--10--10-----12---12---12---12------|
D|-5--5--5--5------9--9--9--9------10--10--10--10-----12---12---12---12------|
A|-3--3--3--3------7--7--7--7------8---8---8---8------10---10---10---10------|
E|---------------------------------------------------------------------------|
  
    "...let me show you ... how    MUCH I        CARE"
e|-----------------------------------------------3----------------THE-END----|
B|-5--5--5--5------9--9--9--9------10------------5----------------THE-END----|
G|-5--5--5--5------9--9--9--9------10---12-------5----------------THE-END----|
D|-5--5--5--5------9--9--9--9------10---12-------5----------------THE-END----|
A|-3--3--3--3------7--7--7--7------8----10-------3----------------THE-END----|
E|----------------------------------------------------------------THE-END----|
<br />

   ***If you want to keep w/ the "bar chord theme", you may use this instead..
e|---------------------------------------------------------------------------|
B|--12---12---------12-------------------------------------------------------|
G|--12---12-/--14---12-------------------------------------------------------|
D|--12---12-/--14---12-------------------------------------------------------|
A|--10---10-/--12---10-------------------------------------------------------|
E|---------------------------------------------------------------------------|
<br />

| /  slide up
<br />
===============================================================================

</pre>


































variations - click chord images
Transpose chords:
Tuning:
Cool service:
View: Size:
A  A  A
Rating:
Layout:
  • Currently 0/5 Stars.
  • 1
  • 2
  • 3
  • 4
  • 5
 
Accuracy:
  • Currently 0/5 Stars.
  • 1
  • 2
  • 3
  • 4
  • 5
 
click stars to rate
Chordie recommends:
Check out JamPlay.com for online video guitar lessons
Songbook:
Login to add this song to your songbook
Support the artist
Preview/buy this song
MSN Music
Why this non-profit ad?

 
login to add comments/video/corrections