Guitar Tabs, Chords and Lyrics


   Various Artists


Tabbed By: Derek Tilton
e-mail: tiltonda@plu.edu

B@$$

Intro:

All Hammer-ons and Pull-offs
G---------------------------|
D---------------------------|
A-454545454----454545454----|
D---------------------------|
(Repeat 4X)

Verse:

G-6-6-6-6-6-6-6-6-6-6-6-6-6-6-6-6-|
D---------------------------------|
A---------------------------------|
D---------------------------------|
(Repeat 6X) then

G---------------------------------|
D---------------------------------|
A-4-4-4-4-4-4-4-4-4-4-4-4-4-4-4-4-|
D---------------------------------|

Pre-Chorus:
G--------------------------------------------------|
D--------------------------------------------------|
A---------------2--2--5----4--2--0-----2--0--------| On Repeat, stop here
D-4--4-4-6--6-6---------------------6--------6--4--|
(Repeat once)

Chorus:
G-------------------------------------------------|
D-------------------------------------------------|
A-4-4444444444444444444444-24-4444444444444444444-|
D-------------------------------------------------|

G----------------------------------------------|
D---------------------------3-4-3--3-43--------|Second time, stop here
A-24-44444444444444444-4-4------------2-2-4----|
D----------------------------------------------|


*Pre-Chorus (once)

*Chorus (once)

*Intro (4X)

*Verse (14X)~going back and forth between high and low octaves~

*Pre-Chorus (2X)

*Chorus (2X)~Second time through, the rhythm is altered, but notes are same~

Ending:                                         (Optional Chord)
G---------------------------------------------------666-]
D---------------------------------------------------666-]
A------------------------------------------2-5-2-4--444-]
D-3--3--3--3--3--3--3--3-0-3--4-3--0-3--4-3-------------]

Alright, Hope  you can play it.  Play heavy most of the time and be liberal with your 
of dynamics, especially during the verses!

Good Luck!

From,


Important: The song above is NOT stored on the Chordie server. The original song is hosted at www.ultimate-guitar.com. Chordie works as a search engine and provides on-the-fly formatting. Chordie does not index songs against artists/composers will. To remove this song please click here.

This song is displayed as text-only. Transposing and tuning is only available for chordpro-songs.

Login - add to songbook

Rating click stars to rate

Layout
Accuracy

SHARE PAGE  




You need to log in to post comments