eToCache5 = ""; ?> Wo Sind Eure Hnde by Tokio Hotel - guitar chords, guitar tabs and lyrics - chordie

Wo Sind Eure Hnde

Tokio Hotel


| Ultimate Guitar Tabs Archive - your #1 source for tabs! | | http://www.ultimate-guitar.com/ | | | | Over 200,000 guitar, guitar pro and bass tabs! Also lessons, news, | | columns and guitar forums! |
Artist: Tokio Hotel Song: Wo Sind Eure Hnde
------------------------------------------------------- TOKIO HOTEL - WO SIND EURE HÄNDE -------------------------------------------------------
INTRO |------------------------------| |------------------------------| |------------------------------| |-7-7-7-10-10-10-3-3-3-7-7-7-7-| |-7-7-7-10-10-10-3-3-3-7-7-7-7-| |-5-5-5-8--8--8--1-1-1-5-5-5-5-|
|------------------------------| |------------------------------| |------------------------------| |-7-7-7-10-10-10-3-3-7-5-------| |-7-7-7-10-10-10-3-3-7-5-------| |-5-5-5-8--8--8--1-1-5-3-------| -X2-
1st VERSE |------------------------------| |------------------------------| |------------------------------| |-7-7-7-10-10-10-3-3-3-7-7-7-7-| |-7-7-7-10-10-10-3-3-3-7-7-7-7-| |-5-5-5-8--8--8--1-1-1-5-5-5-5-|
|------------------------------| |------------------------------| |------------------------------| |-7-7-7-10-10-10-3-3-7-5-------| |-7-7-7-10-10-10-3-3-7-5-------| |-5-5-5-8--8--8--1-1-5-3-------| -X3-
|------------------------------| |------------------------------| |------------------------------| |-7-7-7-10-10-10-3-3-3-7-7-7-7-| |-7-7-7-10-10-10-3-3-3-7-7-7-7-| |-5-5-5-8--8--8--1-1-1-5-5-5-5-|
|------------------------------| |------------------------------| |------------------------------| |-7-7-7-10-10-10-3-3-3-3-3-3-3-| |-7-7-7-10-10-10-3-3-3-3-3-3-3-| |-5-5-5-8--8--8--1-1-1-1-1-1-1-| . . .
PRE-REFRAIN |------------------------------| |------------------------------| |-7-7-7-9-9-9------------------| |-7-7-7-9-9-9-5-5-5-7-7-7------| |-5-5-5-7-7-7-3-3-5-7-7-7------| |-------------3-3-3-5-5-5------|
|------------------------------| |------------------------------| |-7-7-7-9-9-9------------------| |-7-7-7-9-9-9-5-5-5-5-5-5-5-5--| |-5-5-5-7-7-7-3-3-5-5-5-5-5-5--| |-------------3-3-3-3-3-3-3-3--| . . .
REFRAIN |(XX)--------------------------| |(XX)--------------------------| |(XX)-9-9-9-5-5-5-9-9-9--------| |(XX)-9-9-9-5-5-5-9-9-9-5-5-5-5| |(XX)-7-7-7-3-3-3-7-7-7-5-5-5-5| |(XX)-------------------3-3-3-3| -2X-
2nd VERSE |------------------------------| |------------------------------| |------------------------------| |-7-7-7-10-10-10-3-3-3-7-7-7-7-| |-7-7-7-10-10-10-3-3-3-7-7-7-7-| |-5-5-5-8--8--8--1-1-1-5-5-5-5-|
|------------------------------| |------------------------------| |------------------------------| |-7-7-7-10-10-10-3-3-7-5-------| |-7-7-7-10-10-10-3-3-7-5-------| |-5-5-5-8--8--8--1-1-5-3-------| -2X-
|------------------------------| |------------------------------| |------------------------------| |-7-7-7-10-10-10-3-3-3-7-7-7-7-| |-7-7-7-10-10-10-3-3-3-7-7-7-7-| |-5-5-5-8--8--8--1-1-1-5-5-5-5-|
|------------------------------| |------------------------------| |------------------------------| |-7-7-7-10-10-10-3-3-3-3-3-3-3-|
|-7-7-7-10-10-10-3-3-3-3-3-3-3-| |-5-5-5-8--8--8--1-1-1-1-1-1-1-| . . .
PRE REFRAIN |------------------------------| |------------------------------| |-7-7-7-9-9-9------------------| |-7-7-7-9-9-9-5-5-5-7-7-7------| |-5-5-5-7-7-7-3-3-5-7-7-7------| |-------------3-3-3-5-5-5------|
|------------------------------| |------------------------------| |-7-7-7-9-9-9------------------| |-7-7-7-9-9-9-5-5-5-5-5-5-5-5--| |-5-5-5-7-7-7-3-3-5-5-5-5-5-5--| |-------------3-3-3-3-3-3-3-3--| . . .
REFRAIN
|(XX)--------------------------| |(XX)--------------------------| |(XX)-9-9-9-5-5-5-9-9-9--------| |(XX)-9-9-9-5-5-5-9-9-9-5-5-5-5| |(XX)-7-7-7-3-3-3-7-7-7-5-5-5-5| |(XX)-------------------3-3-3-3| -2X-
|------------------------------| |------------------------------| |-9-9-9-------9-9-9------------| |-9-9-9-5-5-5-9-9-9-5-5-5------| |-7-7-7-5-5-5-7-7-7-5-5-5------| |-------3-3-3-------3-3-3------|
|------------------------------| |------------------------------| |------------------------------| |-3-3-3-10-10-10-5-5-5-7-7-7---| |-3-3-3-10-10-10-5-5-5-7-7-7---| |-1-1-1-8 -8 -8 -3-3-3-5-5-5---| . . . . . . . . . . . . .
-2X-
|------------------------------| |------------------------------| |------------------------------| |-3-----10-------5-----7-7-7---| |-3-----10-------5-----7-7-7---| |-1-----8 -------3-----5-5-5---|
-4X-
|---------------| |---------------| |---------------| |-3-3-3-3-3-3-3-| |-3-3-3-3-3-3-3-| |-1-1-1-1-1-1-1-| . . .
REFRAIN |(XX)--------------------------| |(XX)--------------------------| |(XX)-9-9-9-5-5-5-9-9-9--------| |(XX)-9-9-9-5-5-5-9-9-9-5-5-5-5| |(XX)-7-7-7-3-3-3-7-7-7-5-5-5-5| |(XX)-------------------3-3-3-3|
|------------------------------| |------------------------------| |-9-9-9-------9-9-9------------| |-9-9-9-5-5-5-9-9-9-5-5-5------| |-7-7-7-5-5-5-7-7-7-5-5-5------| |-------3-3-3-------3-3-3------|
-3X-
|------------------------------| |------------------------------| |------------------------------| |-7-7-7-10-10-10-3-3-3-7-7-7-7-| |-7-7-7-10-10-10-3-3-3-7-7-7-7-| |-5-5-5-8--8--8--1-1-1-5-5-5-5-|
|------------------------------| |------------------------------| |------------------------------| |-7-7-7-10-10-10-3-3-7-5-------| |-7-7-7-10-10-10-3-3-7-5-------| |-5-5-5-8--8--8--1-1-5-3-------|
-2X-
HOPE YOU LIKE IT!
END
+--------------------------------------------------------------------------+ | This file is the author's own work and represents their interpretation | | of the song. You may only use this file for private study, scholarship, | | or research. | +--------------------------------------------------------------------------+
Ultimate-Guitar.Com © 2005





variations - click chord images
Transpose chords:
Tuning:
Cool service:
View: Size:
A  A  A
Rating:
Layout:
  • Currently 0/5 Stars.
  • 1
  • 2
  • 3
  • 4
  • 5
 
Accuracy:
  • Currently 5/5 Stars.
  • 1
  • 2
  • 3
  • 4
  • 5
 
click stars to rate
Chordie recommends:
Learn how to play guitar at JamPlay.com
Songbook:
Login to add this song to your songbook
Support the artist
Preview/buy this song
MSN Music
Why this non-profit ad?

 
login to add comments/video/corrections