Guitar Tabs, Chords and Lyrics


I'm Not the Man   10,000 Maniacs

It [Fm]crawls....   [Db]            [Eb]           [Fm]

[Fm]Stares at....        [Db]                [Eb]
[Fm]breathe.

[Fm]His eyes.....        [Db]             [Eb]             [Fm]
[Fm]He rules......    [Db]              [Eb]            [Fm]
[Ab]   [Cm]   [Fm]   [Ab]                [Db]          [Db] 
2) (same chords as 1)

Chorus

[Ab]   [Cm]   [Fm]   [Ab]        But I'm [Db]not......      [Db]

He goes free.....[Ab]            [Eb]          [Ab]       [Db]
fo[Ab]r the m[Eb]an.......[Ab]..     [Db]

Db Ab Cm Fm ^
he'll slip..............................and silence

guitar run 1
E---16--15--13-------------------------------------
B----------------16--14--13------------------------
G-----------------------------15--13--12-----------
D------------------------------------------15--------
A----------------------------------------------------
E----------------------------------------------------


3) (same chords)


Chorus

[Ab]   [Cm]   [Fm]   [Ab]        But I'm.[Db]....           [Db]

He goes.....       [Ab]                [Eb]    [Ab]      [Db]
as they[Ab]....    [Eb]        [Ab]        [Db]
[Ab]       [Cm]        [Fm]                     
[Ab]As the [Eb]crowd...      [Ab]                 [Db]
Ab Eb Ab Db Ab Cm Fm *
and I feel......


* guitar run 2
E-16-15-13------------------------------------------
B---------16-14-13----------------------------------
G-------------------15-13-12-------------------------
D----------------------------15-13-------------------
A----------------------------------15--13/(slide down)
E-----------------------------------------------------



4) (same chords as other verses)

Important: The song above is NOT stored on the Chordie server. The original song is hosted at www.xguitar.com. Chordie works as a search engine and provides on-the-fly formatting. Chordie does not index songs against artists'/composers' will. To remove this song please click here.

Text color:
Chord color:
Chord grids: 
Font size:    
Page size: 

Ab Cm Db Eb Fm
variations - click chord images

Login - add to songbook

Transpose chords

Tuning

Rating click stars to rate

Layout
Accuracy

SHARE PAGE  




You need to log in to post comments