Chordie logo

Father's Son   3 Doors Down



----------------------------------------------------------------------------
			     Father's Son - 3 Doors Down
----------------------------------------------------------------------------
Tabbed by: [Sean_Mac]	
Email:

Tuning: Standard (EADGBe)

	intro: Guitar 1 - 1x Clean, 1x distored

e|-------------------------------------------------------------------------|
B|-------------------------------------------------------------------------|
G|----7-----7------7--/--10--10------9---------5-----5------5--/--7--------|
D|------7-----7----7--/--10-----10-----10--------5-----5----5--/--7--------|
A|--5-----5-----5--5--/--8---------8------8--3-----3-----3--3--/--5--------|
E|-------------------------------------------------------------------------|

e|-------------------------------------------------------------------------|
B|-------------------------------------------------------------------------|
G|----7-----7------7--7-7--5-----5--5-5--7---------------------------------|
D|------7-----7----7--7-7--5-----5--5-5--7---------------------------------|
A|--5-----5-----5--5--5-5--3-----3--3-3--5---------------------------------|
E|-------------------------------------------------------------------------|

	Guitar 2 - 2x distored
	
e|-------------------------------------------------------------------------|
B|-------------------------------------------------------------------------|
G|--7-7-7-10-10-10-10-10-5-5-5-7-7-7-7-7--7--7-7--5-----5--5-5--7----------|
D|--7-7-7-10-10-10-10-10-5-5-5-7-7-7-7-7--7--7-7--5-----5--5-5--7----------|
A|--5-5-5-8--8--8--8--8--3-3-3-5-5-5-5-5--5--5-5--3-----3--3-3--5----------|
E|-------------------------------------------------------------------------|

	verse:

e|-------------------------------------------------------------------------|
B|-------------------------------------------------------------------------|
G|----7-----7------7--/--10--10------9---------5-----5------5--/--7--------|
D|------7-----7----7--/--10-----10-----10--------5-----5----5--/--7--------|
A|--5-----5-----5--5--/--8---------8------8--3-----3-----3--3--/--5--------|
E|-------------------------------------------------------------------------|

e|-------------------------------------------------------------------------|
B|-------------------------------------------------------------------------|
G|----7-----7------7--7-7--5-----5--5-5--7---------------------------------|
D|------7-----7----7--7-7--5-----5--5-5--7---------------------------------|
A|--5-----5-----5--5--5-5--3-----3--3-3--5---------------------------------|
E|-------------------------------------------------------------------------|

	CHORUS:

e|-------------------------------------------------------------------------|
B|-------------------------------------------------------------------------|
G|--9-9-9-----------5-5-5-----------9-9-9-----------5-5-5-5-5-5-5-5--------|
D|--9-9-9-9-9-9-9-9-5-5-5-5-5-5-5-5-9-9-9-9-9-9-9-9-5-5-5-5-5-5-5-5--------|
A|--7-7-7-9-9-9-9-9-3-3-3-5-5-5-5-5-7-7-7-9-9-9-9-9-3-3-3-3-3-3-3-3--------|
E|--------7-7-7-7-7-------3-3-3-3-3-------7-7-7-7-7------------------------|

	Pre - Bridge:

e|-------------------------------------------------------------------------|
B|-------------------------------------------------------------------------|
G|----------8~~---------8~~---------8~~------------------------------------|
D|--5--5-5--8~~-5--5-5--8~~-5--5-5--8~~--5--5-5--3--/--5-------------------|
A|--5--5-5--6~~-5--5-5--6~~-5--5-5--6~~--5--5-5--3--/--5-------------------|
E|--3--3-3------3--3-3------3--3-3-------3--3-3--1--/--3-------------------|

	BRIDGE:

e|-----------------------------------------------------------------------|
B|-----------------------------------------------------------------------|
G|------7----9-8--------5-----5-----------7------9-----------------------|
D|----7----------7----5---------5-------7--------7---------------5-5-----|
A|--5------7--------3-------5----------------7-----------------5---5-----|
E|--------------------------------0-2-3------------6/8-8-8-6-3-----3-0-2-|3|



| /  slide up
| \  slide down
| h  hammer-on
| p  pull-off
| ~  vibrato
| +  harmonic
| x  Mute note


Important: The song above is NOT stored on the Chordie server. The original song is hosted at www.xguitar.com. Chordie works as a search engine and provides on-the-fly formatting. Chordie does not index songs against artists/composers will. To remove this song please click here.

This song is displayed as text-only. Transposing and tuning is only available for chordpro-songs.

Login - add to songbook

Rating click stars to rate

Layout
Accuracy

SHARE PAGE  



You need to log in to post comments