Guitar Tabs, Chords and Lyrics


Question Everything   8 Stops 7

e |--3-3--3--3-3--3--3-3--3--3-3--3--3-3--3--3-3--3-------------------|


b |--3-3--3--3-3--3--3-3--3--3-3--3--1-1--1--1-1--0-------------------|


g |--0-0--0--0-0--0--0-0--0--0-0--0--2-2--2--0-0--0-------------------|


d |--2-2--2--x-x--x--2-2--2--x-x--x--2-2--2--0-0--0-------------------|


a |--3-3--3--3-3--3--3-3--3--3-3--3--0-0--0--x-x--x-------------------|


e |----------1-1--1----------1-1--1----------3-3--3-------------------|

     [C]        [F]        [C]        [F]       [Am] [G]note - the x's mean to mute this string
This chord is strummed right before chorus:
e --1--
[b]g [--1--]--2--
[d]  [--3--]      [a]e [--3--]--1--
Chorus: (strumming not shown)
e |--3---3---3---3---3---3---1----------------------------------------|
b |--3---3---3---3---3---1---1----------------------------------------|
g |--0---0---0---0---0---2---2----------------------------------------|
d |--2---x---2---x---2---2---3----------------------------------------|
a |--3---3---3---3---3---0---3----------------------------------------|
e |------1-------1-----------1----------------------------------------|

Chorus: (sounds like acoustic, maybe 12 string, playing this
in the background, chords are played rapidly)
e |--8---8---8---8----8---10p8-8--8---10p8-8--8-----------------------|
b |--8---10--8---10---8---10---10-10--10---10-10----------------------|
g |--9---10--9---10---9---9----9--9---9----9--9----10-----------------|
d |--10--10--10--10---10---------------------------10-----------------|
a |--10--8---10--8----10---------------------------8------------------|
e |--8-------8--------8-----------------------------------------------|

Bridge: (back and forth between these two chords, picking random notes
here and there)
e |---0---1--------------------------3--------------------------------|
b |---1---1--------------------------3--------------------------------|
g |---2---2--- End on this chord ----0--------------------------------|
d |---2---3--------------------------0--------------------------------|
a |---0---3--------------------------2--------------------------------|
e |-------1--------------------------3--------------------------------|

tabbed by zipztabs.com
Enjoy!

Important: The song above is NOT stored on the Chordie server. The original song is hosted at www.xguitar.com. Chordie works as a search engine and provides on-the-fly formatting. Chordie does not index songs against artists'/composers' will. To remove this song please click here.

Text color:
Chord color:
Chord grids: 
Font size:    
Page size: 

Am C F G
variations - click chord images

Login - add to songbook

Transpose chords

Tuning

Rating click stars to rate

Layout
Accuracy

SHARE PAGE  




You need to log in to post comments