Gimme Gimme Gimme

Abba

|----------------------------------------------------------------------

|-----3-------3--------3-------3-------3-------3-------3--------3------
|---2---2---3---3----0-------2---2---3---3---2---2---0--------2---2----
|-0-------0----------------0-------0-------0---------------0-----------
|-----------------3------0-------------------------3-----0-------------
|----------------------------------------------------------------------
|----------------------------------------------------------------------
|-----3-------3--------3-------3-------3-------3-------3---------------
|---2---2---3---3----0-------2---2---3---3---2---2---0---0-------------
|-0-------0----------------0-------0-------0---------------0-----------
|-----------------3------0-------------------------3-------------------
|----------------------------------------------------------------------
|------------------
|------------------
|---5-7\5----------
|-------7-5\3-0----
|------------------
|------------------
|-----------------------------------------------------------------------
|-----------------------------------------------------------------------
|-----------------------------------------------------------------------
|--------------------------------------------0-7-7-7-7-7-7-7-7-7-7-7-7--
|--5-5-5-5-5-5-5-5-5-5-5-5-5-7-8-8-8-8-8-8-8---------------------------5
|-----------------------------------------------------------------------
|-----------------------------------------------------------------------
|-----------------------------------------------------------------------
|-----------------------------------------------------------------------
|-------------------------------------------------------0-7-7-7-7-7-7-7-
|-5-5-5-5-5-5-5-5-5-5-5-5-5-5-5-5-5-5-5-7-8-8-8-8-8-8-8-----------------
|-----------------------------------------------------------------------
|-----------------------------------------------------------------------
|-----------------------------------------------------------------------
|-----------------------------------------------------------------------
|-7-7-7-7-7-------------------------------------------------------------
|-----------5-5-5-5-5-5-5-5-5-5-5-5--5----3-----------------------------
|------------------------------------------------5----3-----1/3---------
|-----------------------------------------------------------------------
|------------------------------------------------5-5--------------------
|-----7-7---------7-7------------10-10---------5-----5------------------
|---7-----7-----7-----7-------10--------10-7-7--------------------------
|-5---------5-5---------5/8-8--------------------------5----------------
|-----------------------------------------------------------------------
|------------------------------
|------------------------------
|-----------------------2/4----
|-----------------------3/5----
|-5----3----------------3/5----
|-----------5---- 3------------
|-----------------------------------------------------------------------
|-----------------------------------------------------------------------
|-----------------------------------------------------------------------
|-----------------------------------------------------------------------
|-5---3-----------------------------------------------------------------
|-----------5-----3-----1/3-3-3-3-3-1-3-1/3-3-3-3-3-3-3-3-1-3-1/3-------
|-----------------------------------------------------------------------
|-----------------------------------------------------------------------
|-----------------------------------------------------------------------
|-----------------------------------------------------------------------
|-----------------------5-5-5-5-5-5-5-5-5-5-5-5-5-3---------------------
|-3-3-3-3-3-3-3-1-3-3-1-----------------------------5-3-1/3-------------
|-----------------------------------------------------------------------
|-----------------------------------------------------------------------
|-----------------------------------------------------------------------
|-----------------------------------------------------------------------
|-5\4-------------------------------------------------------------------
|-----6-6-6-6-6-6-6-6-6-6-6-6-6-6\3-3-3-3-3-3-3-3-3-3-3-3-3-3-3-3-------
|-----------------------------------------------------------------------
|-----------------------------------------------------------------------
|-----------------------------------------------------------------------
|-----------------------------------------------------------------------
|-5-5-5-5-5-5-5-5-7-7-7-7-7-7-7-7---------------------------------------
|-----------------------------------------------------------------------
4th string |-2-3-5-3-2-3-0-
|-----------------------------------------------------------------------
|-----------------------------------------------------------------------
|-----------------------------------------------------------------------
|-7-7\3-3-3-3/5-5-5-7-7-7-7-3-3-3-3/7-7-7-7-3-3-3-5-5-5-5---------------
|-5-5\1-1-1-1/3-3-3-5-5-5-5-1-1-1-1/5-5-5-5-3-3-3-5-3-3-3---------------
|-----------------------------------------------------------------------
|------------------------
|------------------------
|-----------5-7-5--------
|---7-------------7-5\3-0
|-5---5-3-5--------------
|------------------------
5th |-3/5-5-3-5-----
6th |-----------0-3-

 DDDDEFFFFFAAAAAAADDDDD
 (again                                   

 DCAGF/GF/G
Half past twelve and I'm watching the last show,in my flat all alone,
 F/GD
how I hate to spend the evening on my own.
 DCAGF/GF/G
Au-tumm winds blo-wing outside the window as I look around the room,
 F/GD
and it makes me so depressed to see the gloom.
 A#
There's not a soul out there
 GD
 no one to hear my praireeeeeeeeeeeeeeeeeeeeeeeeeeeeeeeee.
 DA#CD
Gimme gimme gimme a man after midnight,
 A#DCD
won't somebody help me chase the shadows away.
 DA#CD
Gimme gimme gimme a man after midnight,
 A#DCD
take me trough the darkness till the brake of the day.

verse 2:
Movie stars at the end of the rainbow,with a fortune to win,
it's so different from the world I'm living in.
Tired of TV I open the window,and I gaze in to the night,
but there's nothing there to see no one in sight.

There's not a soul out there,no one to hear my praire.

Gimme gimme gimme a man after midnight,
won't somebody help me chase the shadows away.
Gimme gimme gimme a man after midnight,
take me trough the darkness till the brake of the day.
Gimme gimme gimme a man after midnight.
Gimme gimme gimme a man after midnight.

There's not a soul out there,no one to hear my praire.

Gimme gimme gimme a man after midnight,
won't somebody help me chase the shadows away.
Gimme gimme gimme a man after midnight,
take me trough the darkness till the brake of the day.
Gimme gimme gimme a man after midnight.
won't somebody help me chase the shadows away.
Gimme gimme gimme a man after midnight.
take me trough the darkness till the brake of the day.

(I hope you liked it!!).


A A# C D E F F/G G
variations - click chord images
Transpose chords:
Tuning:
Cool service:
View: Size:
A  A  A
Rating:
Layout:
  • Currently 2.6/5 Stars.
  • 1
  • 2
  • 3
  • 4
  • 5
 
Accuracy:
  • Currently 2/5 Stars.
  • 1
  • 2
  • 3
  • 4
  • 5
 
click stars to rate
Chordie recommends:
Learn how to play guitar at JamPlay.com
Songbook:
Login to add this song to your songbook
Support the artist
Preview/buy this song
MSN Music
Why this non-profit ad?

 
login to add comments/video/corrections