Guitar Tabs, Chords and Lyrics


That Girl Possessed    Alexisonfire



That Girl Possessed by Alexisonfire
Tabbed By Jklasdf

Tuning: Db Ab Db Gb Bb Eb


INTRO

 Both Guitars
|--------------------------------------------------------------------------|
|--------------------------------------------------------------------------|
|--------------------------------------------------------------------------|
|-11/-11-11-11/--11-11/-11-11-11/--11-11/-11-11-11/--11-11/-11-11-11/--11/-|
|-11/-11-11-11/--11-11/-11-11-11/--11-11/-11-11-11/--11-11/-11-11-11/--11/-|
|-11/-11-11-11/--11-11/-11-11-11/--11-11/-11-11-11/--11-11/-11-11-11/--11/-|

 Both Guitars
|--------------------------------------------------|
|--------------------------------------------------|
|--------------------------------------------------|
|-7--7--7-7--7--7-7-7-7-7--2--2--2-2--4--4-4-4-4-4-|
|-7--7--7-7--7--7-7-7-7-7--2--2--2-2--4--4-4-4-4-4-|
|-7--7--7-7--7--7-7-7-7-7--2--2--2-2--4--4-4-4-4-4-|


INTRO Pt.2

 Both Guitars
|--------------------------------------------------------------------------|
|--------------------------------------------------------------------------|
|--------------------------------------------------------------------------|
|-11/-11-11-11/--11-11/-11-11-11/--11-11/-11-11-11/--11-11/-11-11-11/--11/-|
|-11/-11-11-11/--11-11/-11-11-11/--11-11/-11-11-11/--11-11/-11-11-11/--11/-|
|-11/-11-11-11/--11-11/-11-11-11/--11-11/-11-11-11/--11-11/-11-11-11/--11/-|

 Both Guitars
|-------------------------------|
|-------------------------------|
|-------------------------------|
|-7--7--7-7--7--7-7--7--7--7--2-|
|-7--7--7-7--7--7-7--7--7--7--2-|
|-7--7--7-7--7--7-7--7--7--7--2-|


INTRO Pt.3

 Both Guitars
|--------------------|
|--------------------|
|--------------------|
|-11/-11-11-11/--11/-|
|-11/-11-11-11/--11/-|
|-11/-11-11-11/--11/-|

 Both Guitars
|--------------------------------------------------|
|--------------------------------------------------|
|--------------------------------------------------|
|-7--7--7-7--7--7-7-7-7-7--2--2--2-2--4--4-4-4-4-4-|
|-7--7--7-7--7--7-7-7-7-7--2--2--2-2--4--4-4-4-4-4-|
|-7--7--7-7--7--7-7-7-7-7--2--2--2-2--4--4-4-4-4-4-|


INTRO Pt. 4

 Both Guitars
|--------------------|
|--------------------|
|--------------------|
|-11/-11-11-11/--11/-|
|-11/-11-11-11/--11/-|
|-11/-11-11-11/--11/-|

 Both Guitars
|------------------------------------------------------|
|------------------------------------------------------|
|------------------------------------------------------|
|-7--7--7-7--7--7-7-7-7-7--2--2--2-2--4--4-4-4-4-4-11~-|
|-7--7--7-7--7--7-7-7-7-7--2--2--2-2--4--4-4-4-4-4-11~-|
|-7--7--7-7--7--7-7-7-7-7--2--2--2-2--4--4-4-4-4-4-11~-|


VERSE

 Both Guitars
|----------------------------------------------------------------------------------------------------------------|
|----------------------------------------------------------------------------------------------------------------|
|----------------------------------------------------------------------------------------------------------------|
|-7-7--7-7-7--7-7-7--7-7-7-7-7-2-2--2-2-2-2-2-4-4--4-4-4-4-4-11-11--11-11-11--11-11-11--11-11-11-11-11-----------|  x3
|-7-7--7-7-7--7-7-7--7-7-7-7-7-2-2--2-2-2-2-2-4-4--4-4-4-4-4-11-11--11-11-11--11-11-11--11-11-11-11-11---11\\'s-x2-|
|-7-7--7-7-7--7-7-7--7-7-7-7-7-2-2--2-2-2-2-2-4-4--4-4-4-4-4-11-11--11-11-11--11-11-11--11-11-11-11-11-----------|

 Both Guitars
|---------------------------------------------------------------|
|---------------------------------------------------------------|
|---------------------------------------------------------------|
|-7-7--7-7-7--7-7-7--7-7-7-7-7-2-2--2-2-2-2-2-4-4--4-4-4-4-4-11-|
|-7-7--7-7-7--7-7-7--7-7-7-7-7-2-2--2-2-2-2-2-4-4--4-4-4-4-4-11-|
|-7-7--7-7-7--7-7-7--7-7-7-7-7-2-2--2-2-2-2-2-4-4--4-4-4-4-4-11-|

 Both Guitars
|-----------------------|
|-----------------------|
|-----------------------|
|-6-7--1-2--4-----------|
|-6-7--1-2--4-Play Lots-|
|-6-7--1-2--4-----------|


CHORUS

 Both Guitars
|---------------------------|
|---------------------------|
|---------------------------|
|-11------------7-----------|  x2
|-11-Play Lots--7-Play Lots-|
|-11------------7-----------|


BRIDGE

 Guitar 1				     ___________
|-10-10-8-8-10-10-13-13-12-12-8-8-10-10-8-8-|		\\\\
|-------------------------------------------|		 \\\\
|-------------------------------------------|		  \\\\
|-------------------------------------------|		   \\\\
|-------------------------------------------|		    \\\\
|-------------------------------------------|		     \\\\
|					       		      \\\\	
|Guitar 2						       \\\\
|--------------------------------------------------------|	\\\\
|--------------------------------------------------------|	 \\\\
|--------------------------------------------------------|	  \\\\
|-11/-11-11-11-11/-11-11-11-11/-11-11-11-11/-11-11-11-11-|	   \\\\
|-11/-11-11-11-11/-11-11-11-11/-11-11-11-11/-11-11-11-11-|	    \\\\
|-11/-11-11-11-11/-11-11-11-11/-11-11-11-11/-11-11-11-11-|	     \\\\
PM     .  .         .  .         .  .         .  .  .  .	      \\\\ x4
								      /
 Guitar 1							     /
|-10-10-8-8-10-10-13-13-12-12-8-8-10-10-8-8-|			    /
|-------------------------------------------|			   /
|-------------------------------------------|			  /
|-------------------------------------------|			 /
|-------------------------------------------|			/
|-------------------------------------------|		       /
|					       		      /	
|Guitar 2						     /
|---------------------------------------|		    /
|---------------------------------------|		   /
|---------------------------------------|		  /
|-7/-7-7-7-7/-7-7-7-7/-7-7-7-7/-7-7-7-7-|	         /
|-7/-7-7-7-7/-7-7-7-7/-7-7-7-7/-7-7-7-7-|		/
|-7/-7-7-7-7/-7-7-7-7/-7-7-7-7/-7-7-7-7-|______________/
PM   . .      . .      . .      . . . .


CHORUS x4

INTRO Pt.2



Important: The song above is NOT stored on the Chordie server. The original song is hosted at www.xguitar.com. Chordie works as a search engine and provides on-the-fly formatting. Chordie does not index songs against artists'/composers' will. To remove this song please click here.

This song is displayed as text-only. Transposing and tuning is only available for chordpro-songs.

Login - add to songbook

Rating click stars to rate

Layout
Accuracy

SHARE PAGE  




You need to log in to post comments