Chordie logo


Sunshine   Alice In Chains



Sunshine by Alice In Chains
Transcribed by TTwohig260@aol.com (Tim Twohig)

Here's the basics to the song Sunshine.
Tune 6'th string to D

Notation:
b = bend          r = release          p = pulloff
h = hammer on    ~~ = vibrato     \ or / = slide
X = muted string

Intro and verse:

-----------------------------------------------------------------
-----------------------------------------------------------------
---------------------2----------------------2----5 B---5 B-
---5-P-2------------------5-P-2----------------------------
---0----------0------------------------0----------------------
----------------------------------------------------------------

--------------------------------------------------------------------
--------------------------------------------------------------------
--------------------------2----------------------------------------
---------5-P-2----5----------------5-P-2---------------------
--0----------------------------0----------------0--3B--0--3B-
-------------------------------------------------------------------

Then there is this cool little riff:

--------------------------------------------------------------------
--------------------------------------------------------------------
--------------------------------------------------------------------
--------0----1---2---1---0--------------------------------------
--3------------------------------3----0--------------------------
-------------------------------------------------------------------

Cool stomp riff:

-------------------------------------------------------------------------
-------------------------------------------------------------------------
-------------------------------------------------------------------------
-----------------------~~---------~~~-------------------------------
----------------------5------------3----------------3------3----------
--3---5---6---7-------------7---------------5----3------3--------0-

Chorus:

--------------3------2--------------------------------------------------
--3----------3------3-------6-\-8-------6------6--------------------
--2----------2------2-------5-\-7-------5------5------5------7----
--0---------------------------3-\-5------3------3------5------7----
--0---------------------------3-\-5------3------3------3------5----
-------------------------------3-\-5------3------3-------------------

---------------------------------------------------------------------6--
--------------3------2---------------------------------------------5--
--2----------2------2-------------------3-----3-------5-------------
--2----------2------2-------------------3-----3-------3-------------
--0-------------------------0---0-------1-----1-------3-------------
----------------------------------------------------------3-------------

Bridge (Play twice):

--------------3-P-2-------------2--------------5--6-P-5-----------5-
----------3-------------3--------------------6----------------6----------
------2----------------------2----------\5-------------------------5-----
--0------------------------------------------------------------------------
----------------------------------------------------------------------------
----------------------------------------------------------------------------

----------------------------------------------------------------------------
----------------3-P-2----------------------------------------------------
-----------2---------------2----------2------3------3---X---X---X-----
-------2-------------------------2------------3------3---X---X---X-----
--0--------------------------------------------1------1---X---X---X-----
----------------------------------------------------------------------------

-----------------------------------------------------------------------------
--6---6--------6------6---6----------------------------------------------
--5---5--------5------5---5----------------------------------------------
--3---3--------3------3---3----------------------------------------------
-----------------------------------------------------------------------------
-----------------------------------------------------------------------------

B = Bend   P = Pulloff
\ = slide  ~~ = vibrato
Sunshine (Solo) by Alice in Chains
Transcribed by TTwohig260@aol.com (Tim Twohig)

Remember to tune the low E string down to D.

---------------------------------------------------------------
---------------------------------------------------------------
--------------5----7----7-B--------R--------5-h-7-p-5--
--5-h-7-----------------------------------------------------
--------------------------------------------------------------
--------------------------------------------------------------

PM************************
--------------------------------------------------------------------
--------------------------------------------------------------------
-------------------------------------------------------------~~~-
----------------------------2----3-----2-b----R----------2-----
----------0----3-----5--------------------------------------------
----5--------------------------------------------------------------

---------------------------------------------------------------------
---------------------------------------------------------------------
-----------------------------10-------------------------12-b-----
----------------10---12----------12----10---12---------------
--12-/-13--------------------------------------------------------
--------------------------------------------------------------------

-------------------------13-p-10--------------------------------
--10-h-13-p-10---------------------13-p-10-------13-b---
--------------------------------------------------------------------
--------------------------------------------------------------------
--------------------------------------------------------------------
--------------------------------------------------------------------

----------~~~~~-----------------------------------------------------
---13-b-----------------13-b-r-p-10-------------------------------
-----------------------------------------------12-b-r-p-10----------
------------------------------------------------------------------12---
-------------------------------------------------------------------------
-------------------------------------------------------------------------

---13-b------r-----13-----10-----------~~~~-----------------------
----------------------------------------13-b-----------------------------
------------------------------------------------------------------X--X----
------------------------------------------------------------------X--X----
----------------------------------------------------------------------------
----------------------------------------------------------------------------

----------------------------------------------------------------------------
--------------------------------10-----------------------------------------
-----------------10--12-b----------12-b-r-p-10-------~~~~-------
--10-h-12---------------------------------------------12---------------
----------------------------------------------------------------------------
----------------------------------------------------------------------------

----------------------------------------------------------------------------------
----------------------------------------------------------------------------------
----------------------------------------------------------------------------------
--12---10----------10--------------------------------------------------------
---------------12-----------12--11--10---8---10-b-r-p-8----------------
----------------------------------------------------------------------10---10--

After the next chorus, there is another little solo:

---------------~~~~------------------------------------------------------------
--13-b------13-----------------------keep bent----------------------------
----------------------------------12-b--12---12---12--12--r-----10-------
-----------------------------------------------------------------------------------
-----------------------------------------------------------------------------------
-----------------------------------------------------------------------------------

--------------------------------------------------------------------------------------
--------------------------------------------------------------18----20-----20-b--
---12-b----12-b-r-p-10------~~~---------------------------------------------
---------------------------------12-------------------------------------------------
-------------------------------------------------------------------------------------
-------------------------------------------------------------------------------------

--------------------------20----------------20------------20---------------------
--keep 20 bent----------------20------------20------------20-r---20------
--------------------------------------------------------------------------------------
--------------------------------------------------------------------------------------
--------------------------------------------------------------------------------------
--------------------------------------------------------------------------------------

--------------------------------------------------------------------------------------
-20-b-r-p-18-------~~~-----18------20-b-r----18--------------------------
----------------------19--------------------------------------19-b-r-p-17-------
--------------------------------------------------------------------------------------
--------------------------------------------------------------------------------------
--------------------------------------------------------------------------------------

--------------------------------------------------------------------------------------
--------------------------------------------------------------------------------------
---------17---------------------------------~~------------------------------------
--19-----------19----18---17-\-15---17---------15--------------------------
---------------------------------------------------------------17-------------------


Important: The song above is NOT stored on the Chordie server. The original song is hosted at www.xguitar.com. Chordie works as a search engine and provides on-the-fly formatting. Chordie does not index songs against artists/composers will. To remove this song please click here.

This song is displayed as text-only. Transposing and tuning is only available for chordpro-songs.

Login - add to songbook

Rating click stars to rate

Layout
Accuracy

SHARE PAGE  




You need to log in to post comments