Chordie logo


Move Along    All American Rejects



Song: Move Along
Artist: The All-American Rejects
Album: Move Along
Release Date: Interscope Records
Label: Dreamworks SKG
	The All-American Rejects Are:
Vaocals: Tyson Ritter
Guitars: Nick Wheeler
Guitars: Mike Kennerty
Bass Guitars: Tyson Ritter
Drums: Chris Gaylor
	The All-American Rejects Use:
Sennheiser Microphones, Gibson, Fender, and Epiphone
guitars, Line 6 Pedals, Ernie Ball Strings, Dunlop picks,
Tama Drums, Sabian Symbols and Vater Drum Sticks.

Standard Tunung
e|--
b|--
g|--
d|--
a|--
e|--

Symols Used In This Song:
~ Hold Note Out

Tabbed By: Rhy Chermside
I'm constantly improving and correcting my tabs, so if you have any suggestions email me.
	BeatOnTheBrat91@hotmail.com

Guitar 1 (Lead) Intro:
e|------------------------------------------------------------------------------|
b|--11-11-x-11-11-x-11-11-x-11-11-11-11-x-9--9--x-9--9--x-9--9--x-9--9--9--9--x-|
g|--12-12-x-12-12-x-12-12-x-12-12-12-12-x-10-10-x-10-10-x-10-10-x-10-10-10-10-x-|
d|--13-13-x-13-13-x-13-13-x-13-13-13-13-x-12-12-x-12-12-x-12-12-x-12-12-12-12-x-|
a|------------------------------------------------------------------------------|
e|------------------------------------------------------------------------------|

Guitar 1 Intro:
e|------------------------------------------------------------------------------|
b|--11-11-x-11-11-x-11-11-x-11-11-11-11-x-12-12-x-12-12-x-12-12-x-12-12-12-12-x-|
g|--12-12-x-12-12-x-12-12-x-12-12-12-12-x-13-13-x-13-13-x-13-13-x-13-13-13-13-x-|
d|--13-13-x-13-13-x-13-13-x-13-13-13-13-x-15-15-x-15-15-x-15-15-x-15-15-15-15-x-|
a|------------------------------------------------------------------------------|
e|------------------------------------------------------------------------------|




Guitar 1 Verse:
e|------------------------------------------------------------------------------|
b|--11-11-x-11-11-x-11-11-x-11-11-11-11-x-9--9--x-9--9--x-9--9--x-9--9--9--9--x-|
g|--12-12-x-12-12-x-12-12-x-12-12-12-12-x-10-10-x-10-10-x-10-10-x-10-10-10-10-x-|
d|--13-13-x-13-13-x-13-13-x-13-13-13-13-x-12-12-x-12-12-x-12-12-x-12-12-12-12-x-|
a|------------------------------------------------------------------------------|
e|------------------------------------------------------------------------------|
      Go      ahead     as       you       waste        your      days     whith

Guitar 1 Verse:
e|------------------------------------------------------------------------------|
b|--11-11-x-11-11-x-11-11-x-11-11-11-11-x-12-12-x-12-12-x-12-12-x-12-12-12-12-x-|
g|--12-12-x-12-12-x-12-12-x-12-12-12-12-x-13-13-x-13-13-x-13-13-x-13-13-13-13-x-|
d|--13-13-x-13-13-x-13-13-x-13-13-13-13-x-15-15-x-15-15-x-15-15-x-15-15-15-15-x-|
a|------------------------------------------------------------------------------|
e|------------------------------------------------------------------------------|
   thinking                        when     you     fall     everyone      says

Guitar 1 Verse:
e|------------------------------------------------------------------------------|
b|--11-11-x-11-11-x-11-11-x-11-11-11-11-x-9--9--x-9--9--x-9--9--x-9--9--9--9--x-|
g|--12-12-x-12-12-x-12-12-x-12-12-12-12-x-10-10-x-10-10-x-10-10-x-10-10-10-10-x-|
d|--13-13-x-13-13-x-13-13-x-13-13-13-13-x-12-12-x-12-12-x-12-12-x-12-12-12-12-x-|
a|------------------------------------------------------------------------------|
e|------------------------------------------------------------------------------|
    Another         day        and       you've      had      your    fill  of

Guitar 1 Verse:
e|------------------------------------------------------------------------------|
b|--11-11-x-11-11-x-11-11-x-11-11-11-11-x-12-12-x-12-12-x-12-12-x-12-12-12-12-x-|
g|--12-12-x-12-12-x-12-12-x-12-12-12-12-x-13-13-x-13-13-x-13-13-x-13-13-13-13-x-|
d|--13-13-x-13-13-x-13-13-x-13-13-13-13-x-15-15-x-15-15-x-15-15-x-15-15-15-15-x-|
a|------------------------------------------------------------------------------|
e|------------------------------------------------------------------------------|
    Sinking                         with     the     life   held    in     your

Verse:
Hands are shaking cold
Theese hands are meant to hold
Speak to me





Guitars 1 & 2 Chorus:
e|--------------------------------------------------------------------|
b|--------------------------------------------------------------------|
g|--7---7---7---7---7---7---7---7/8---5---5---5---5---5---5---5---5/6-|
d|--7---7---7---7---7---7---7---7/8---5---5---5---5---5---5---5---5/6-|
a|--5---5---5---5---5---5---5---5/6---3---3---3---3---3---3---3---3/4-|
e|--------------------------------------------------------------------|
     When      all       you     gotta      keep      is     strong

Guitars 1 & 2 Chorus:
e|----------------------------------------------------------------|
b|----------------------------------------------------------------|
g|--3---3---3---3---3---3---3---3---------------------------------|
d|--3---3---3---3---3---3---3---3---5---5---5---5---5---5---5---5-|
a|--1---1---1---1---1---1---1---1---5---5---5---5---5---5---5---5-|
e|----------------------------------3---3---3---3---3---3---3---3-|
    Move along       Move along    Like    I    know    you    do

Guitars 1 & 2 Chorus:
e|--------------------------------------------------------------------|
b|--------------------------------------------------------------------|
g|--7---7---7---7---7---7---7---7/8---5---5---5---5---5---5---5---5/6-|
d|--7---7---7---7---7---7---7---7/8---5---5---5---5---5---5---5---5/6-|
a|--5---5---5---5---5---5---5---5/6---3---3---3---3---3---3---3---3/4-|
e|--------------------------------------------------------------------|
      And      even     when     your       hope       is       gone

Guitars 1 & 2 Chorus:
e|----------------------------------------------------------------|
b|----------------------------------------------------------------|
g|--3---3---3---3---3---3---3---3---------------------------------|
d|--3---3---3---3---3---3---3---3---5---5---5---5---5---5---5---5-|
a|--1---1---1---1---1---1---1---1---5---5---5---5---5---5---5---5-|
e|----------------------------------3---3---3---3---3---3---3---3-|
    Move along       Move along    Just   to   make  it  through




Interlude:
Move along

Guitar 1 Interlude:
e|------------------------------------------------------------------------------|
b|--11-11-x-11-11-x-11-11-x-11-11-11-11-x-9--9--x-9--9--x-9--9--x-9--9--9--9--x-|
g|--12-12-x-12-12-x-12-12-x-12-12-12-12-x-10-10-x-10-10-x-10-10-x-10-10-10-10-x-|
d|--13-13-x-13-13-x-13-13-x-13-13-13-13-x-12-12-x-12-12-x-12-12-x-12-12-12-12-x-|
a|------------------------------------------------------------------------------|
e|------------------------------------------------------------------------------|
                                                                           Move
Guitar 1 Interlude:
e|------------------------------------------------------------------------------|
b|--11-11-x-11-11-x-11-11-x-11-11-11-11-x-12-12-x-12-12-x-12-12-x-12-12-12-12-x-|
g|--12-12-x-12-12-x-12-12-x-12-12-12-12-x-13-13-x-13-13-x-13-13-x-13-13-13-13-x-|
d|--13-13-x-13-13-x-13-13-x-13-13-13-13-x-15-15-x-15-15-x-15-15-x-15-15-15-15-x-|
a|------------------------------------------------------------------------------|
e|------------------------------------------------------------------------------|
    Along





Guitar 2 Verse:
e|-------------------------------------------------------|
b|-------------------------------------------------------|
g|-------------------------------------------------------|
d|--7-7-7-7---------------------5-5-5-5------------------|
a|--7-7-7-7---------------------5-5-5-5------------------|
e|--5-5-5-5---------------------3-3-3-3------------------|
           So a day when you've lost yourself completely

Guitar 1 Verse:
e|------------------------------------------------------------------------------|
b|--11-11-x-11-11-x-11-11-x-11-11-11-11-x-12-12-x-12-12-x-12-12-x-12-12-12-12-x-|
g|--12-12-x-12-12-x-12-12-x-12-12-12-12-x-13-13-x-13-13-x-13-13-x-13-13-13-13-x-|
d|--13-13-x-13-13-x-13-13-x-13-13-13-13-x-15-15-x-15-15-x-15-15-x-15-15-15-15-x-|
a|------------------------------------------------------------------------------|
e|------------------------------------------------------------------------------|
     Could       be       a      night       when      your     life      ends

Guitar 1 Verse:
e|------------------------------------------------------------------------------|
b|--11-11-x-11-11-x-11-11-x-11-11-11-11-x-9--9--x-9--9--x-9--9--x-9--9--9--9--x-|
g|--12-12-x-12-12-x-12-12-x-12-12-12-12-x-10-10-x-10-10-x-10-10-x-10-10-10-10-x-|
d|--13-13-x-13-13-x-13-13-x-13-13-13-13-x-12-12-x-12-12-x-12-12-x-12-12-12-12-x-|
a|------------------------------------------------------------------------------|
e|------------------------------------------------------------------------------|
     Such     a    heart    that     will     lead     you     to     decieving

Guitar 1 Verse:
e|------------------------------------------------------------------------------|
b|--11-11-x-11-11-x-11-11-x-11-11-11-11-x-12-12-x-12-12-x-12-12-x-12-12-12-12-x-|
g|--12-12-x-12-12-x-12-12-x-12-12-12-12-x-13-13-x-13-13-x-13-13-x-13-13-13-13-x-|
d|--13-13-x-13-13-x-13-13-x-13-13-13-13-x-15-15-x-15-15-x-15-15-x-15-15-15-15-x-|
a|------------------------------------------------------------------------------|
e|------------------------------------------------------------------------------|
           All         the        pain        held         in         your

Guitar 1 Verse:
e|-----------------------------7---10---11---|
b|---------------------------8---8----8----9-|
g|-----------------------9-9-----------------|
d|-------------------------------------------|
a|-------------------------------------------|
e|-------------------------------------------|
  Hands are shaking cold               Theese

Guitar 2 Verse:
e|------------------------------------|
b|------------------------------------|
g|------------------------------------|
d|---------------------7--7/3~--------|
a|---------------------7--7/3~--------|
e|---------------------5--5/1~--------|
Hands are meant to hold  Speak to me







Guitars 1 & 2 Chorus:
e|--------------------------------------------------------------------|
b|--------------------------------------------------------------------|
g|--7---7---7---7---7---7---7---7/8---5---5---5---5---5---5---5---5/6-|
d|--7---7---7---7---7---7---7---7/8---5---5---5---5---5---5---5---5/6-|
a|--5---5---5---5---5---5---5---5/6---3---3---3---3---3---3---3---3/4-|
e|--------------------------------------------------------------------|
     When      all       you     gotta      keep      is     strong

Guitars 1 & 2 Chorus:
e|----------------------------------------------------------------|
b|----------------------------------------------------------------|
g|--3---3---3---3---3---3---3---3---------------------------------|
d|--3---3---3---3---3---3---3---3---5---5---5---5---5---5---5---5-|
a|--1---1---1---1---1---1---1---1---5---5---5---5---5---5---5---5-|
e|----------------------------------3---3---3---3---3---3---3---3-|
    Move along       Move along    Like    I    know    you    do

Guitars 1 & 2 Chorus:
e|--------------------------------------------------------------------|
b|--------------------------------------------------------------------|
g|--7---7---7---7---7---7---7---7/8---5---5---5---5---5---5---5---5/6-|
d|--7---7---7---7---7---7---7---7/8---5---5---5---5---5---5---5---5/6-|
a|--5---5---5---5---5---5---5---5/6---3---3---3---3---3---3---3---3/4-|
e|--------------------------------------------------------------------|
      And      even     when     your       hope       is       gone

Guitars 1 & 2 Chorus:
e|----------------------------------------------------------------|
b|----------------------------------------------------------------|
g|--3---3---3---3---3---3---3---3---------------------------------|
d|--3---3---3---3---3---3---3---3---5---5---5---5---5---5---5---5-|
a|--1---1---1---1---1---1---1---1---5---5---5---5---5---5---5---5-|
e|----------------------------------3---3---3---3---3---3---3---3-|
    Move along       Move along    Just   to   make  it  through





Guitar 1 & 2 Bridge:
e|------------------------------------------------------------------------------|
b|--11-11-x-11-11-x-11-11-x-11-11-11-11-x-9--9--x-9--9--x-9--9--x-9--9--9--9--x-|
g|--12-12-x-12-12-x-12-12-x-12-12-12-12-x-10-10-x-10-10-x-10-10-x-10-10-10-10-x-|
d|--13-13-x-13-13-x-13-13-x-13-13-13-13-x-12-12-x-12-12-x-12-12-x-12-12-12-12-x-|
a|------------------------------------------------------------------------------|
e|------------------------------------------------------------------------------|
        Go on      Go on     Go on        Go on                           When

Guitar 1 & 2 Bridge:
e|------------------------------------------------------------------------------|
b|--11-11-x-11-11-x-11-11-x-11-11-11-11-x-12-12-x-12-12-x-12-12-x-12-12-12-12-x-|
g|--12-12-x-12-12-x-12-12-x-12-12-12-12-x-13-13-x-13-13-x-13-13-x-13-13-13-13-x-|
d|--13-13-x-13-13-x-13-13-x-13-13-13-13-x-15-15-x-15-15-x-15-15-x-15-15-15-15-x-|
a|------------------------------------------------------------------------------|
e|------------------------------------------------------------------------------|
       Everything        is       wrong         we      move     along

Guitar 1 & 2 Bridge:
e|------------------------------------------------------------------------------|
b|--11-11-x-11-11-x-11-11-x-11-11-11-11-x-9--9--x-9--9--x-9--9--x-9--9--9--9--x-|
g|--12-12-x-12-12-x-12-12-x-12-12-12-12-x-10-10-x-10-10-x-10-10-x-10-10-10-10-x-|
d|--13-13-x-13-13-x-13-13-x-13-13-13-13-x-12-12-x-12-12-x-12-12-x-12-12-12-12-x-|
a|------------------------------------------------------------------------------|
e|------------------------------------------------------------------------------|
        Go on      Go on     Go on        Go on                           When

Guitar 1 & 2 Bridge:
e|------------------------------------------------------------------------------|
b|--11-11-x-11-11-x-11-11-x-11-11-11-11-x-12-12-x-12-12-x-12-12-x-12-12-12-12-x-|
g|--12-12-x-12-12-x-12-12-x-12-12-12-12-x-13-13-x-13-13-x-13-13-x-13-13-13-13-x-|
d|--13-13-x-13-13-x-13-13-x-13-13-13-13-x-15-15-x-15-15-x-15-15-x-15-15-15-15-x-|
a|------------------------------------------------------------------------------|
e|------------------------------------------------------------------------------|
       Everything        is       wrong         we      move




Guitar 1 & 2 Bridge Part II:
e|---------------------------------|
b|---------------------------------|
g|---------------------------------|
d|--7~~---------------7~~----------|
a|--7~~---------------7~~----------|
e|--5~~---------------5~~----------|
    Along__________  (Along________)

Guitar 1 & 2 Bridge Part II:
e|---------------------------------|
b|---------------------------------|
g|---------------------------------|
d|--7-7~~------------7-7~~---------|
a|--7-7~~------------7-7~~---------|
e|--5-5~~------------5-5~~---------|
    Along__________ (Along_________)

Guitar 1 & 2 Bridge Part II:
e|---------------------------------|
b|---------------------------------|
g|---------------------------------|
d|--7-7~~------------7-7~~---------|
a|--7-7~~------------7-7~~---------|
e|--5-5~~------------5-5~~---------|
    Along__________ (Along_________)

Guitar 1 & 2 Bridge Part II:
e|---------------------------------|
b|---------------------------------|
g|---------------------------------|
d|--7-7~~------------7-7~~---------|
a|--7-7~~------------7-7~~---------|
e|--5-5~~------------5-5~~---------|
    Along__________ (Along_________)

Guitar 1 & 2 Bridge Part II:
e|-------------------|
b|-------------------|
g|-------------------|
d|--7-7~~------------|
a|--7-7~~------------|
e|--5-5~~------------|
    Along__________



Bridge Part III:
When all you gotta keep is strong
Move along, Move along,
Like I know you do
And even when your hope is gone
Move along, Move along,
Just to make it through




Guitars 1 & 2 Chorus:
e|--------------------------------------------------------------------|
b|--------------------------------------------------------------------|
g|--7---7---7---7---7---7---7---7/8---5---5---5---5---5---5---5---5/6-|
d|--7---7---7---7---7---7---7---7/8---5---5---5---5---5---5---5---5/6-|
a|--5---5---5---5---5---5---5---5/6---3---3---3---3---3---3---3---3/4-|
e|--------------------------------------------------------------------|
     When      all       you     gotta      keep      is     strong

Guitars 1 & 2 Chorus:
e|----------------------------------------------------------------|
b|----------------------------------------------------------------|
g|--3---3---3---3---3---3---3---3---------------------------------|
d|--3---3---3---3---3---3---3---3---5---5---5---5---5---5---5---5-|
a|--1---1---1---1---1---1---1---1---5---5---5---5---5---5---5---5-|
e|----------------------------------3---3---3---3---3---3---3---3-|
    Move along       Move along    Like    I    know    you    do

Guitars 1 & 2 Chorus:
e|--------------------------------------------------------------------|
b|--------------------------------------------------------------------|
g|--7---7---7---7---7---7---7---7/8---5---5---5---5---5---5---5---5/6-|
d|--7---7---7---7---7---7---7---7/8---5---5---5---5---5---5---5---5/6-|
a|--5---5---5---5---5---5---5---5/6---3---3---3---3---3---3---3---3/4-|
e|--------------------------------------------------------------------|
      And      even     when     your       hope       is       gone

Guitars 1 & 2 Chorus:
e|----------------------------------------------------------------|
b|----------------------------------------------------------------|
g|--3---3---3---3---3---3---3---3---------------------------------|
d|--3---3---3---3---3---3---3---3---5---5---5---5---5---5---5---5-|
a|--1---1---1---1---1---1---1---1---5---5---5---5---5---5---5---5-|
e|----------------------------------3---3---3---3---3---3---3---3-|
    Move along       Move along    Just   to   make  it  through

Guitars 1 & 2 Chorus:
e|--------------------------------------------------------------------|
b|--------------------------------------------------------------------|
g|--7---7---7---7---7---7---7---7/8---5---5---5---5---5---5---5---5/6-|
d|--7---7---7---7---7---7---7---7/8---5---5---5---5---5---5---5---5/6-|
a|--5---5---5---5---5---5---5---5/6---3---3---3---3---3---3---3---3/4-|
e|--------------------------------------------------------------------|
     When      all       you     gotta      keep      is     strong

Guitars 1 & 2 Chorus:
e|----------------------------------------------------------------|
b|----------------------------------------------------------------|
g|--3---3---3---3---3---3---3---3---------------------------------|
d|--3---3---3---3---3---3---3---3---5---5---5---5---5---5---5---5-|
a|--1---1---1---1---1---1---1---1---5---5---5---5---5---5---5---5-|
e|----------------------------------3---3---3---3---3---3---3---3-|
    Move along       Move along    Like    I    know    you    do

Guitars 1 & 2 Chorus:
e|--------------------------------------------------------------------|
b|--------------------------------------------------------------------|
g|--7---7---7---7---7---7---7---7/8---5---5---5---5---5---5---5---5/6-|
d|--7---7---7---7---7---7---7---7/8---5---5---5---5---5---5---5---5/6-|
a|--5---5---5---5---5---5---5---5/6---3---3---3---3---3---3---3---3/4-|
e|--------------------------------------------------------------------|
      And      even     when     your       hope       is       gone

Guitars 1 & 2 Chorus:
e|----------------------------------------------------------------|
b|----------------------------------------------------------------|
g|--3---3---3---3---3---3---3---3---------------------------------|
d|--3---3---3---3---3---3---3---3---5---5---5---5---5---5---5---5-|
a|--1---1---1---1---1---1---1---1---5---5---5---5---5---5---5---5-|
e|----------------------------------3---3---3---3---3---3---3---3-|
    Move along       Move along    Just   to   make  it  through





Guitar 1 & 2 Outro:
e|------------------------------------------------------------------------------|
b|--11-11-x-11-11-x-11-11-x-11-11-11-11-x-9--9--x-9--9--x-9--9--x-9--9--9--9--x-|
g|--12-12-x-12-12-x-12-12-x-12-12-12-12-x-10-10-x-10-10-x-10-10-x-10-10-10-10-x-|
d|--13-13-x-13-13-x-13-13-x-13-13-13-13-x-12-12-x-12-12-x-12-12-x-12-12-12-12-x-|
a|------------------------------------------------------------------------------|
e|------------------------------------------------------------------------------|
        Go on      Go on     Go on        Go on                            Write

Guitar 1 & 2 Outro:
e|------------------------------------------------------------------------------|
b|--11-11-x-11-11-x-11-11-x-11-11-11-11-x-12-12-x-12-12-x-12-12-x-12-12-12-12-x-|
g|--12-12-x-12-12-x-12-12-x-12-12-12-12-x-13-13-x-13-13-x-13-13-x-13-13-13-13-x-|
d|--13-13-x-13-13-x-13-13-x-13-13-13-13-x-15-15-x-15-15-x-15-15-x-15-15-15-15-x-|
a|------------------------------------------------------------------------------|
e|------------------------------------------------------------------------------|
       Back        what        is       wrong         we      move

Guitar 1 & 2 Outro:
e|------------------------------------------------------------------------------|
b|--11-11-x-11-11-x-11-11-x-11-11-11-11-x-9--9--x-9--9--x-9--9--x-9--9--9--9--x-|
g|--12-12-x-12-12-x-12-12-x-12-12-12-12-x-10-10-x-10-10-x-10-10-x-10-10-10-10-x-|
d|--13-13-x-13-13-x-13-13-x-13-13-13-13-x-12-12-x-12-12-x-12-12-x-12-12-12-12-x-|
a|------------------------------------------------------------------------------|
e|------------------------------------------------------------------------------|
        Go on      Go on     Go on        Go on                            Write

Guitar 1 & 2 Outro:
e|------------------------------------------------------------------------------|
b|--11-11-x-11-11-x-11-11-x-11-11-11-11-x-12-12-x-12-12-x-12-12-x-12-12-12-12-x-|
g|--12-12-x-12-12-x-12-12-x-12-12-12-12-x-13-13-x-13-13-x-13-13-x-13-13-13-13-x-|
d|--13-13-x-13-13-x-13-13-x-13-13-13-13-x-15-15-x-15-15-x-15-15-x-15-15-15-15-x-|
a|------------------------------------------------------------------------------|
e|------------------------------------------------------------------------------|
       Back        what        is       wrong         we      move

Guitar 1 & 2 Outro:
e|------------------------------------------------------------------------------|
b|--11-11-x-11-11-x-11-11-x-11-11-11-11-x-9--9--x-9--9--x-9--9--x-9--9--9--9--x-|
g|--12-12-x-12-12-x-12-12-x-12-12-12-12-x-10-10-x-10-10-x-10-10-x-10-10-10-10-x-|
d|--13-13-x-13-13-x-13-13-x-13-13-13-13-x-12-12-x-12-12-x-12-12-x-12-12-12-12-x-|
a|------------------------------------------------------------------------------|
e|------------------------------------------------------------------------------|
        Go on      Go on     Go on        Go on                            Write

Guitar 1 & 2 Outro:
e|------------------------------------------------------------------------------|
b|--11-11-x-11-11-x-11-11-x-11-11-11-11-x-12-12-x-12-12-x-12-12-x-12-12-12-12-x-|
g|--12-12-x-12-12-x-12-12-x-12-12-12-12-x-13-13-x-13-13-x-13-13-x-13-13-13-13-x-|
d|--13-13-x-13-13-x-13-13-x-13-13-13-13-x-15-15-x-15-15-x-15-15-x-15-15-15-15-x-|
a|------------------------------------------------------------------------------|
e|------------------------------------------------------------------------------|


Important: The song above is NOT stored on the Chordie server. The original song is hosted at www.xguitar.com. Chordie works as a search engine and provides on-the-fly formatting. Chordie does not index songs against artists/composers will. To remove this song please click here.

This song is displayed as text-only. Transposing and tuning is only available for chordpro-songs.

Login - add to songbook

Rating click stars to rate

Layout
Accuracy

SHARE PAGE  




You need to log in to post comments