Guitar Tabs, Chords and Lyrics


Camouflage    Allister



Artist: Allister
Album:  Last Stop Suburbia
Track:  Camouflage
Tabber: Joona Kokkonen

There is two guitars in this song, but I made it for one.

= = let ring
* = palm muted

Intro (acoustic):
E|------------------------------------------------------------|
B|------------------------------------------------------------|
G|------------------------------------------------------------|
D|--9-9--9-9-9--9-9-9--9-9-9-9--6-6--6-6-6--2-2-2--2-2-2-2----|
A|--9-9--9-9-9--9-9-9--9-9-9-9--6-6--6-6-6--2-2-2--2-2-2-2----|
E|--7-7--7-7-7--7-7-7--7-7-7-7--4-4--4-4-4--0-0-0--0-0-0-0----|

E|------------------------------------------------------------|
B|------------------------------------------------------------|
G|------------------------------------------------------------|
D|--9-9--9-9-9--9-9-9--9-9-9-9--6-6--6-6-6--2-2-2--2-2-2-2----|
A|--9-9--9-9-9--9-9-9--9-9-9-9--6-6--6-6-6--2-2-2--2-2-2-2----|
E|--7-7--7-7-7--7-7-7--7-7-7-7--4-4--4-4-4--0-0-0--0-0-0-0----|

E|------------------------------------------------------------|
B|--------------------4====-----------------------------------|
G|---------------------4==4====-------------------------------|
D|--6-6-6-6-6---4-4--2==4==4==4=6-6-6-6-6---4-4--2========----|
A|--6-6-6-6-6---4-4--2======2===6-6-6-6-6---4-4--2========----|
E|--4-4-4-4-4---2-2--0==========4-4-4-4-4---2-2--0========----|

Fill (electric guitar comes in with distortion):
E|----------------------------|
B|----------------------------|
G|----------------------------|
D|-2-2-2-2--2--2-2-2-2-2-2----|
A|-2-2-2-2--2--2-2-2-2-2-2----|
E|-0-0-0-0--0--0-0-0-0-0-0----|
pm.* * * *     * * * * * *

Verse (distortion):
E|------------------------------------------------------------|
B|------------------------------------------------------------|
G|--4-4--4-4-4--4-4-4--4-4-4-4--------------------------------|
D|--4-4--4-4-4--4-4-4--4-4-4-4--6-6--6-6-6--2-2-2--2-2-2-2----|
A|--2-2--2-2-2--2-2-2--2-2-2-2--6-6--6-6-6--2-2-2--2-2-2-2----|
E|------------------------------4-4--4-4-4--0-0-0--0-0-0-0----|

E|------------------------------------------------------------|
B|------------------------------------------------------------|
G|--4-4--4-4-4--4-4-4--4-4-4-4--------------------------------|
D|--4-4--4-4-4--4-4-4--4-4-4-4--6-6--6-6-6--2-2-2--2-2-2-2----|
A|--2-2--2-2-2--2-2-2--2-2-2-2--6-6--6-6-6--2-2-2--2-2-2-2----|
E|------------------------------4-4--4-4-4--0-0-0--0-0-0-0----|

E|------------------------------------------------------------|
B|------------------------------------------------------------|
G|------------------------------------------------------------|
D|--6-6-6-6-6---4-4--2========--6-6-6-6-6---4-4--2========----|
A|--6-6-6-6-6---4-4--2========--6-6-6-6-6---4-4--2========----|
E|--4-4-4-4-4---2-2--0========--4-4-4-4-4---2-2--0========----|

E|----------------------------|
B|----------------------------|
G|----------------------------|
D|-2-2-2-2--2--2-2-2-2-2-2----|
A|-2-2-2-2--2--2-2-2-2-2-2----|
E|-0-0-0-0--0--0-0-0-0-0-0----|
pm.* * * *     * * * * * *

Chorus:
E|------------------------------------------------------------|
B|------------------------------------------------------------|
G|--4-4-------------------------4-4---------------------------|
D|--4-4--6-6-6--2=============--4-4--6-6-6--2=============----|
A|--2-2--6-6-6--2=============--2-2--6-6-6--2=============----|
E|-------4-4-4--0=============-------4-4-4--0=============----|

E|------------------------------------------------------------|
B|------------------------------------------------------------|
G|--4-4-------------------------4-4-4-4-4-4-4-----------------|
D|--4-4--6-6-6--2=============--4-4-4-4-4-4-4-6==6==2==2==----|
A|--2-2--6-6-6--2=============--2-2-2-2-2-2-2-6==6==2==2==----|
E|-------4-4-4--0=============----------------4==4==0==0==----|

Solo (sounds like piano): [x2]
E|--14-----------14-----------14----------------11-9----------|
B|-----12-11-12-----12-11-12-----12-11-12--9-12------12-11----|
G|------------------------------------------------------------|
D|------------------------------------------------------------|
A|------------------------------------------------------------|
E|------------------------------------------------------------|

Verse

Chorus

Second Solo (sounds like piano): [x2]
E|-----11--------------------11-------14-12-11----------------|
B|--14----12----9-9/12----14----12----------------------------|
G|---------------------------------------------4==============|
D|---------------------------------------------x==============|
A|---------------------------------------------2==============|
E|------------------------------------------------------------|

Outro (acoustic):
E|------------------------------------------------------------|
B|------------------------------------------------------------|
G|------------------------------------------------------------|
D|--9-9--9-9-9--9-9-9--9-9-9-9--6-6--6-6-6--2-2-2--2-2-2-2----|
A|--9-9--9-9-9--9-9-9--9-9-9-9--6-6--6-6-6--2-2-2--2-2-2-2----|
E|--7-7--7-7-7--7-7-7--7-7-7-7--4-4--4-4-4--0-0-0--0-0-0-0----|

E|------------------------------------------------------------|
B|------------------------------------------------------------|
G|------------------------------------------------------------|
D|--9-9--9-9-9--9-9-9--9-9-9-9--6-6--6-6-6--2-2-2--2-2-2======|
A|--9-9--9-9-9--9-9-9--9-9-9-9--6-6--6-6-6--2-2-2--2-2-2======|
E|--7-7--7-7-7--7-7-7--7-7-7-7--4-4--4-4-4--0-0-0--0-0-0======|


Lyrics:

Hiding in back and never make a sound
If you don't speak your thoughts
They can't be turned around
Cause' you lead a targeted youth
Can't find the courage to leave your shell yet

Finding short term courage in a flask
Another wasted day you're never getting back
Cause' you lead a targeted youth
Would only talk to certain few
Can't find the courage to leave your shell yet
Torn apart and...

Camouflaged in the background and holding things deep
Never showing your true self to the kids you meet
Finding shade in imagination
One more day forgotten to the world

Hiding in back and never make a sound
If you don't speak your thoughts
They can't be turned around
Cause' you lead a targeted youth
Would only talk to certain few
Can't find the courage to leave your shell yet
Torn apart and...

Camouflaged in the background and holding things deep
Never showing your true self to the kids you meet
Finding shade in imagination
One more day forgotten to the world

Finding short term courage in a flask
Another wasted day you're never getting back



Important: The song above is NOT stored on the Chordie server. The original song is hosted at www.xguitar.com. Chordie works as a search engine and provides on-the-fly formatting. Chordie does not index songs against artists/composers will. To remove this song please click here.

This song is displayed as text-only. Transposing and tuning is only available for chordpro-songs.

Login - add to songbook

Rating click stars to rate

Layout
Accuracy

SHARE PAGE  




You need to log in to post comments