Cherry Bomb

Ash

-------------------------------


 C5D5G5
-------------
-------------
--5---7------
--5---7---5--repeat
--3---5---5--
----------3--

VERSE1:
 C5D5G5
-------------
-------------
--5---7------
--5---7---5--repeat
--3---5---5--
----------3--

BRIDGE:
 F5C5A5F5G5
---------------------
---------------------
------5--------------
--3---5---7---3---5--
--3---3---7---3---5--
--1-------5---1---3--

VERSE2: same as verse1
BRIDGE
CHORUS:
 C5A5G5C5F5Ab5Bb5C5A5C5F5G5
-------------------------------------------------
-------------------------------------------------
--5-----------5---------------5-------5----------
--5---7---5---5---3---6---8---5---7---5---3---5--
--3---7---5---3---3---6---8---3---7---3---3---5--
------5---3-------1---4---6-------5-------1---3--

SOLO:
 C5D5G5
-------------
-------------
--5---7------
--5---7---5--repeat
--3---5---5--
----------3--

I haven't tabbed the solo cos there are too many effects
so it's difficult to hear what is played,sorry about that!!
VERSE3: same as the other verses
BRIDGE
CHORUS
SOLO:
 C5D5G5F5
------------------------
------------------------
--5---7-----------------
--5---7---5--repeat--3--
--3---5---5----------3--
----------3----------1--

I haven't tabbed the solo cos there are too many effects
so it's difficult to hear what is played,sorry about that!!
CHORUS:
C5 A5 G5 C5 F5 Ab5 Bb5 =20
-----------------------------
-----------------------------
--5-----------5--------------
--5---7---5---5---3---6---8--
--3---7---5---3---3---6---8--
------5---3-------1---4---6--

 C5A5G5C5F5Ab5Bb5C5A5C5F5G5
-------------------------------------------------
-------------------------------------------------
--5-----------5---------------5-------5----------
--5---7---5---5---3---6---8---5---7---5---3---5--
--3---7---5---3---3---6---8---3---7---3---3---5--
------5---3-------1---4---6-------5-------1---3--

 F5G5F5G5C5
---------------------
---------------------
------------------5--
--3---5---3---5---5--
--3---5---3---5---3--
--1---3---1---3------

ENJOY!!
To see a list of my tabs,please visit my website:
www.multimania.com/aauuddee













A5 Ab5 Bb5 C5 D5 F5 G5
variations - click chord images
Transpose chords:
Tuning:
Cool service:
View: Size:
A  A  A
Rating:
Layout:
  • Currently 3/5 Stars.
  • 1
  • 2
  • 3
  • 4
  • 5
 
Accuracy:
  • Currently 3.2/5 Stars.
  • 1
  • 2
  • 3
  • 4
  • 5
 
click stars to rate
Chordie recommends:
Get acoustic guitar lessons and electric guitar lessons at JamPlay.com
Songbook:
Login to add this song to your songbook
Support the artist
Preview/buy this song
MSN Music
Why this non-profit ad?

 
login to add comments/video/corrections