Guitar Tabs, Chords and Lyrics


Waking the Fallen    Avenged Sevenfold



Band: Avenged Sevenfold
Track: Waking The Fallen
Album: Waking The Fallen
Tabbed By: Damien
Tuning: Drop D (D, A, D, G, B, E)

This riff is repeated throughout most of the whole 1:42 minutes.

1----------------|
2----------------|
3----------------|
4--4--4--4-4--4--|
5--4--4--4-4--4--|
6--4--4--4-4--4--|
   *  *  * *  *

1----------------|
2----------------|
3----------------|
4--4--4--4-4--4--|
5--4--4--4-4--4--|
6--4--4--4-4--4--|
   *  *  * *  *

1----------------|
2----------------|
3----------------|
4--4--4--4-4--4--|
5--4--4--4-4--4--|
6--4--4--4-4--4--|
   *  *  * *  *

1----------------|
2----------------|
3----------------|
4--4--4--4-4--4--|
5--4--4--4-4--4--|
6--4--4--4-4--4--|


Important: The song above is NOT stored on the Chordie server. The original song is hosted at www.xguitar.com. Chordie works as a search engine and provides on-the-fly formatting. Chordie does not index songs against artists'/composers' will. To remove this song please click here.

This song is displayed as text-only. Transposing and tuning is only available for chordpro-songs.

Login - add to songbook

Rating click stars to rate

Layout
Accuracy

SHARE PAGE  




You need to log in to post comments