Chordie logo

The Things You Do    Zakk Wylde's Black Label Society



zakk wylde
the things you do
tabbed by james burirngton

Tuning: Standard


INTRO

|--------h----------------------/-----------------------0------|
|------3--5-3-------------------/-----------------------3------|
|------2----2--------h--p-------/--------------------0--0------|
|-0-0--0-----------2--4--2----2-/-2--4--2------------4---------|
|--------------0-0-0--------5---/-x--x--x--5-----2---2---------|
|-------------------------------/-3--3--3--3-----0-------------|

intro lick

|-----------------/--------/-----------------------------------|
|-------10--------/--------/-----------------------------------|
|-9--11----11--9--/--9--7--/-----------------------------------|
|-----------------/--------/-----------------------------------|
|-----------------/--------/-----------------------------------|
|-----------------/--------/-----------------------------------|

VERSE:

|---------------/------3---------------/-----------------------|
|-----3------2--/------3---3-----------/-----3-----------------|
|-----2------2--/------0---0-----------/-----2--------2--------|
|-0-0-0------2--/----------0---------0-/-0-0-0--------2--------|
|--------0-0-0--/---------------0--2---/----------0-0-0--------|
|---------------/--3-3-------3----h----/-----------------------|

                            part before chorus:worse and even more..

|------------------0-----/--0-------/-0------/-----------------|
|------3-------3----3----/--3---0---/-3---3--/-----------------|
|------0---------0----0--/--0-----4-/-0---0--/-----------------|
|------0---------------4-/--4-------/-4---0--/-----------------|
|------x-----------------/----------/-----x--/-----------------|
|-3-3--3-----0-----------/----------/-----3--/-----------------|

CHORUS:
       h
|-----0--2-2----------/------------0-------/-------------------|
|-----3----3-------1--/-----3--3-----3-----/-------------------|
|-----2----2-------2--/-----0---0------0---/-------------------|
|-0-0-0------------2--/-----0------------4-/-------------------|
|-------------0-0--0--/-----x--------------/-------------------|
|---------------------/-3-3-3--------------/-------------------|

BRIDGE                  strum                   etc....
                                              h
|------------0--------/---0---/--1-----3-/--0--2-0--2----------|
|--------------3------/---1---/--1-----3-/--3----3--3----------|
|------0----------0---/---2---/--2-----4-/--2----2--2----------|
|---------4---------4-/---2---/--3-----5-/--0----0--0----------|
|----2----------------/---0---/--3-----5-/---------------------|
|--0------------------/-------/--1-----3-/---------------------|

SOLO:
Bar A                            bar B

|----------------------------/---------------------------------|
|---10--bend-----------------/---------------------------------|
|------9---9-9-7-9--9---9--7-/-7-----------------------------|
|---------------s----bend----/---7--9--------------------------|
|----------------------------/-----s---------------------------|
|----------------------------/---------------------------------|



|---------------/---/--------------------/---------------------|
|---------------/---/--------------------/---------------------|
|-repeat bar a--/-7-/--repeat-bar then B-/------------------|

|---------------/---/--------------------/---------------------|
|---------------/---/--------------------/---------------------|
|---------------/---/--------------------/---------------------|


|--10-------7---------------------/----------------------------|
|-----10-------10-----------------/------------------------|
|------bend---------9---9-9---7-9-/--9---9-7----7--9-----------|
|--------------------bend---------/---bend--------h---7--9-----|
|---------------------------------/---------------------h------|


Important: The song above is NOT stored on the Chordie server. The original song is hosted at www.xguitar.com. Chordie works as a search engine and provides on-the-fly formatting. Chordie does not index songs against artists/composers will. To remove this song please click here.

This song is displayed as text-only. Transposing and tuning is only available for chordpro-songs.

Login - add to songbook

Rating click stars to rate

Layout
Accuracy

SHARE PAGE  

You need to log in to post comments