Guitar Tabs, Chords and Lyrics


Thespian    Bowling For Soup



Tuning: Standard (E A D G B E)



Intro (4X)

E|---------------------------------------------------------------------------||
B|---------------------------------------------------------------------------||
G|-----7--4--5--------7--4--5-4-----------------------------------------------||
D|--5--7--4--5-----5--7--4--5-4-7-5--------------------------------------------||
A|--5--5--2--3-----5--5--2--3-2-7-5--------------------------------------------||
E|--3--------------3------------5-3--------------------------------------------||

Verse/Bridge
(hit each chord once clean the first time through,
then add distortion and palm mute the second time through)
E|---------------------------------------------------------------------------||
B|---------------------------------------------------------------------------||
G|--------9--5---------------------------------------------------------------||
D|--5--9--9--5---------------------------------------------------------------||
A|--5--9--7--3---------------------------------------------------------------||
E|--3--7---------------------------------------------------------------------||

Chorus (strum 2X)

E|---------------------------------------------------------------------------||
B|---------------------------------------------------------------------------||
G|-----7---------------------------------------------------------------------||
D|--5--7--9--10-9-7-5--------------------------------------------------------||
A|--5--5--9--10-9-7-5--------------------------------------------------------||
E|--3-----7--8--7-5-3--------------------------------------------------------||

Chorus end (horns are playing during this part) played 2X


E|---------------------------------------------------------------------------||
B|---------------------------------------------------------------------------||
G|-----7---------------------------------------------------------------------||
D|--5--7--9--10--------------------------------------------------------------||
A|--5--5--9--10--------------------------------------------------------------||


Important: The song above is NOT stored on the Chordie server. The original song is hosted at www.xguitar.com. Chordie works as a search engine and provides on-the-fly formatting. Chordie does not index songs against artists'/composers' will. To remove this song please click here.

This song is displayed as text-only. Transposing and tuning is only available for chordpro-songs.

Login - add to songbook

Rating click stars to rate

Layout
Accuracy

SHARE PAGE  




You need to log in to post comments