When You're Gone

Bryan Adams

 DmG
I've been wandering around the house all night

 CCsus4
 wondering what the hell to do  

 DmGCCsus4
I'm trying to concentrate but all I can think of is you     

 DmG
well the phone don't ring cos my friends ain't home

 CCsus4
 I'm tired of being all alone 

 DmBbG
got the TV on cos the radio's playing songs that remind me of you

CHORUS

 DmFCG
Baby when you're gone - I realise I'm in love     

 DmFCG
the days go on and on - and the nights just seem so long

 DmFCG
even food don't taste that good - drink ain't doing what it should 

 DmBbG
things just feel so wrong - baby when you're gone

VERSE IS THE SAME AS ABOVE
I've been driving up and down these streets
trying to find somewhere to go
yeah I'm lookin' for a familiar face but there's no one I know
this is torture - this is pain - it feels like I'm gonna go insane
I hope you're coming back real soon - cos I don't know what to do

CHORUS

SOLO: Dm|G|C|Csus4

CHORUS x2

That's Pretty much it as far as chords go
The solo goes something like this:

E--8-3---0-----0-3-5-3-0-0-0-0-----------------------0-3-0---------------------------0-3-5-5-5-3-3-5-5-3-3-5-3-----0-3-
B------3---3-1-----------------3-1-1---1-3-1-3-3-3-1-------3-1-3-1---------------1-3---------------------------3-1-----
G------------------------------------2-----------------------------2-0-----0-0-2---------------------------------------
D----------------------------------------------------------------------0-2---------------------------------------------
A----------------------------------------------------------------------------------------------------------------------
E----------------------------------------------------------------------------------------------------------------------
E--3-0-3-5-3-5-8-12-10-8----8-10-10-8-10-10-10--------------------------------------------------
B------------------------10--------------------11-11-11-11-11-10-8-8-10-8-3-1-------------------
G-----------------------------------------------------------------------------------------------
D-----------------------------------------------------------------------------------------------
A-----------------------------------------------------------------------------------------------
E-----------------------------------------------------------------------------------------------


That's about it.


Bb C Csus4 Dm F G
variations - click chord images
Transpose chords:
Tuning:
Cool service:
View: Size:
A  A  A
Rating:
Layout:
  • Currently 2.9/5 Stars.
  • 1
  • 2
  • 3
  • 4
  • 5
 
Accuracy:
  • Currently 2.8/5 Stars.
  • 1
  • 2
  • 3
  • 4
  • 5
 
click stars to rate
Chordie recommends:
Get acoustic guitar lessons and electric guitar lessons at JamPlay.com
Songbook:
Login to add this song to your songbook
Support the artist
Preview/buy this song
MSN Music
Why this non-profit ad?

 
login to add comments/video/corrections