Guitar Tabs, Chords and Lyrics


Arco Arena    Cake



Cake - Arco Arena
Submitted By: Hokuhloogie
EMail: ZRoHOuR72@aol.com


clean
e ---------------------------------------------- x2
B ----------------------------------------------
G --2---2-----2-0-0----------------------------------
D ----2---2-3-------3p2-------------------------------
A ----------------------------------------------
E ----------------------------------------------



e ----------------------------------------------
B ----------------------------------------------
G --2---2-----2-0-----0------------------------------
D ----2---2-3-----3-2---3-2-0---------------------------
A ----------------------------------------------
E ----------------------------------------------


distortion here
e ----------------------------------------------
B ----------------------------------------------
G ------------2------------2----------------------
D --0--------------------------------------------
A ----3-2-3p0----2h3-2h3p0-----------------------------------
E ----------------------------------------------

fastly switch to this:

clean
e --8--5---5-----5---------------------------------- x3
B -------8---5-6---5--------------------------------
G -------------------5---------------------------
D ----------------------------------------------
A ----------------------------------------------
E ----------------------------------------------



e ----------------------------------------------
B --------5--------------------------------------
G --5--7----5---4-5----------------------------------
D ------------7----------------------------------
A ----------------------------------------------
E ----------------------------------------------


e --8--5---5-----5----------------------------------
B -------8---5-6---5--------------------------------x2
G -------------------5---------------------------
D ----------------------------------------------
A ----------------------------------------------
E ----------------------------------------------


e ----------------------------------------------
B --------5--------------------------------------
G --5--7----5---4-5----------------------------------
D ------------7----------------------------------
A ----------------------------------------------
E ----------------------------------------------

clean
e ----------------------------------------------
B ---------------------------------------------- x3
G --2---2-----2-0-0----------------------------------
D ----2---2-3-------3p2-------------------------------
A ----------------------------------------------
E ----------------------------------------------


clean
e ----------------------------------------------
B ---------------------------------------------- x2
G --2---2-----2-0-0----------------------------------
D ----2---2-3-------3p2-------------------------------
A ----------------------------------------------
E ----------------------------------------------


e ----------------------------------------------
B ----------------------------------------------
G --2---2-----2-0-----0------------------------------
D ----2---2-3-----3-2---3-2-0---------------------------
A ----------------------------------------------
E ----------------------------------------------


distortion here
e ----------------------------------------------
B ----------------------------------------------
G ------------2------------2----------------------
D --0--------------------------------------------
A ----3-2-3p0----2h3-2h3p0-----------------------------------


Important: The song above is NOT stored on the Chordie server. The original song is hosted at www.xguitar.com. Chordie works as a search engine and provides on-the-fly formatting. Chordie does not index songs against artists'/composers' will. To remove this song please click here.

This song is displayed as text-only. Transposing and tuning is only available for chordpro-songs.

Login - add to songbook

Rating click stars to rate

Layout
Accuracy

SHARE PAGE  




You need to log in to post comments