Chordie logo

Bleed     Cold



Cold - Bleed
Tune standard with all strings down 4 half steps
Low To High - C F A# D# G C

Here's the basic form, it varies from this slightly a few times, but the
chords stay the same, so you can add your own stuff using the same chords.

Verses:
|--------2---2----------0---0----------0---0----------0----------------------|
|------0--------------0--------------0--------------0---0-----0--------------|
|----0-----0---0----0-----0---0----0-----0---0----0---------0--- repeat -----|
|--2--------------0---------------------------------------0------------------|
|--------------------------------4--------------3----------------------------|
|----------------------------------------------------------------------------|

Chorus:
|----------------------------------------------------------------------------|
|--------3---3----------3---3----------3---3----------3---3------------------|
|------0---0---0------0---0---0------0---0---0------0---0---0----------------|
|----0--------------0--------------2--------------0--------------------------|
|--------------------------------3--------------2----------------------------|
|--3--------------2----------------------------------------------------------|

guitar 2 plays basically the same thing, it plays lots of natural harmonics also,
at the 12, 7, and 5 frets.


Important: The song above is NOT stored on the Chordie server. The original song is hosted at www.xguitar.com. Chordie works as a search engine and provides on-the-fly formatting. Chordie does not index songs against artists/composers will. To remove this song please click here.

This song is displayed as text-only. Transposing and tuning is only available for chordpro-songs.

Rating click stars to rate

Layout
Accuracy

SHARE PAGE  

You need to log in to post comments