Guitar Tabs, Chords and Lyrics


Just Got Wicked   Cold



 ----------------------------------------------------------------------------------------------

             SONG: Just Got Wicked
             BAND: Cold
            ALBUM: 13 Ways To Bleed On Stage
   TRANSCRIBED BY: Ken Ochalek (kennyochalek@hotmail.com)
             DATE: Unknown

 ----------------------------------------------------------------------------------------------

        TUNING: drop d and down one full step (C-G-C-F-A-D)
     Drum Intro

     RIFF 1: 3 times, Fill 1 on 4th time

    ----------------------------------------------
    ----------------------------------------------
    ----------------------------------------------
    --0-0---*19-19-19-19-19-18-18-18-18-17-17-17--
    --0-0-----------------------------------------
    --0-0-----------------------------------------

     *tap these notes with right hand

     FILL 1:

    ----------------------------------------
    ----------------------------------------
    ---------------------------19/21\19-----
    --*17-17-17-17-17/19-19-19--------------
    ----------------------------------------
    ----------------------------------------

     VERSE 1: 

     just bass (i think), but if you want to
     play something, I think its just this

    -----------------
    -----------------
    -----------------
    --0--------2/3---

     CHORUS:

     Guitar 1

    -------------------------------------------
    -------------------------------------------
    -------------------------------------------
    -----------5-------------------5-----------
    ---0---3-------------------3---------------
    -----------------------3-------------------

    Guitar 2

    -------------------------------------------
    -------------------------------------------
    -------------------------------------------
    ---7-------------------5-------------------
    ---7-------------------3------------------- 
    ---7-------------------3-------------------

     VERSE 2:

    ----------------------
    ----------------------
    ----------------------
    --0-0-222-333-555-----
    --0-0-222-333-555-----
    --0-0-222-333-555-----
 
     BREAKDOWN: (the part before "1, 2, 3 here I come...")

    -------
    -------   you can figure
    -------   the rhythm out
    ---0---
    ---0---
    ---0---

    ---h3--   harmomnics on third break of breakdown

     BRIDGE:

    ------------------------
    ------------------------
    ------------------------
    --0-0-555-6666/8888-----
    --0-0-555-6666/8888-----
    --0-0-555-6666/8888-----




Important: The song above is NOT stored on the Chordie server. The original song is hosted at www.xguitar.com. Chordie works as a search engine and provides on-the-fly formatting. Chordie does not index songs against artists'/composers' will. To remove this song please click here.

This song is displayed as text-only. Transposing and tuning is only available for chordpro-songs.

Login - add to songbook

Rating click stars to rate

Layout
Accuracy

SHARE PAGE  




You need to log in to post comments