Guitar Tabs, Chords and Lyrics


The Day Seattle Died   Cold



SONG: The Day Seattle Died
GROUP: Cold
ALBUM: Year of The Spider 
TUNING: Standard

this tab is my own work... except for parts of the solo... my guitar teacher helped me with that... 

h=hammer on
b=bend string

Intro/Main Riff (with digital delay)
e|---------------------------------------|
B|---------------------------------------|
G|---------------10-----------10----8----|
D|-8h10-10-10-10----10-10b-10----10---10-|
A|---------------------------------------|
E|---------------------------------------|

Second Guitar plays this in the main riff every other timeÂ…
e|-------------|
B|-------------|
G|-12-13-12----|
D|----------13-|
A|-------------|
E|-------------|

Chorus (no rhythm)
e|-----------|
B|-----------|
G|-----------|
D|-10-11-6-4-|
A|-8--11-6-4-|
E|-6--9--4-2-|

Solo (keyboard transcribed for guitar) (play it twice)
e|------8--------8---|-----8-------8---|-----13------11---|
B|----8---8----8---8-|---8---8---8---8-|---14--14--11--11-|
G|-10-------10-------|-8-------8-------|-11------11-------|
D|-------------------|-----------------|------------------|
A|-------------------|-----------------|------------------|
E|-------------------|-----------------|------------------|

Cont.
e|-----13------11---|-----8--------8---|-8------8-------8----|
B|---14--14--11--11-|---8---8----8---8-|---11-8---11------11-|
G|-11------11-------|-10------10-------|-------------10------|
D|------------------|------------------|---------------------|
A|------------------|------------------|---------------------|
E|------------------|------------------|---------------------|

Cont.
e|-11------------11---|-11-----------11---|
B|----11-9---9-11--11-|---11-9---9-11--11-|
G|---------8----------|--------8----------|
D|--------------------|-------------------|
A|--------------------|-------------------|
E|--------------------|-------------------|



Important: The song above is NOT stored on the Chordie server. The original song is hosted at www.xguitar.com. Chordie works as a search engine and provides on-the-fly formatting. Chordie does not index songs against artists'/composers' will. To remove this song please click here.

This song is displayed as text-only. Transposing and tuning is only available for chordpro-songs.

Login - add to songbook

Rating click stars to rate

Layout
Accuracy

SHARE PAGE  




You need to log in to post comments