Hello, Hooray

Alice Cooper

e-|---------------------------------------------------17~-19~-21~-------------------------

B-|-------------------10~-12--15--14~-14--15--17------------------------------------------
G-|----6~-6--7--9---------------------------------14--------------------------------------
D-|----------------7----------------------------------------------------------------------
A-|-7-------------------------------------------------------------------------------------
E-|---------------------------------------------------------------------------------------
Chorus: I tried to match some of the chords to your everyday chords and they sound the same but you can be the judge of that. Personally, they sound alike but im not 100% sure. Just listen for the timing when \"I___\'ve been waiting so long...\" is sung. For the 2nd chorus play G-G-F-G-C-G-G-F-G-C-G-G-F-F-G-C

 GGFGCGGFFGCGGFGCGCCE
e-|-3--3--1--3--0--3--3--1--1--3--0--3--3--1--3--0--3--0--0--0----------------------------
B-|-3--3--1--3--1--3--3--1--1--3--1--3--3--1--3--1--3--1--1--0----------------------------
G-|-0--0--2--0--0--0--0--2--2--0--0--0--0--2--0--0--0--0--0--1----------------------------
D-|-0--0--3--0--2--0--0--3--3--0--2--0--0--3--0--2--0--2--2--2----------------------------
A-|-2--2-----2--3--2--2--------2--3--2--2-----3--3--2--3--3--2----------------------------
E-|-3--3-----3-----3--3--------3-----3--3-----3-----3-------------------------------------


Solo: (2:38 approx.) (slowly slide into it and at 5/12/17 pick 5 slide to 12, pick 12 slide to 17, and pick 17
and I think you might want to bend the strings quick and slightly up and down for a better sound on the high notes which might not be the right notes, but close enough.)

e-|-/12--14--15/12--12--12--12/10--10/8--8/7--7/3--5/12/17--19--20--22--19--17------------
B-|---------------------------------------------------------------------------------------
G-|---------------------------------------------------------------------------------------
D-|---------------------------------------------------------------------------------------
A-|---------------------------------------------------------------------------------------
E-|---------------------------------------------------------------------------------------


The song ends with G-G-F-F-C and fades. That\'s all!
























C E F G
variations - click chord images
Transpose chords:
Tuning:
Cool service:
View: Size:
A  A  A
Rating:
Layout:
  • Currently 2.3/5 Stars.
  • 1
  • 2
  • 3
  • 4
  • 5
 
Accuracy:
  • Currently 3.1/5 Stars.
  • 1
  • 2
  • 3
  • 4
  • 5
 
click stars to rate
Chordie recommends:
Get acoustic guitar lessons and electric guitar lessons at JamPlay.com
Songbook:
Login to add this song to your songbook
Support the artist
Preview/buy this song
MSN Music
Why this non-profit ad?

 
login to add comments/video/corrections