Teenage Lament '74

Alice Cooper

e:----------------        ---------------------------------

B:----------------        ---------------------------------

G:-------0--------        ---------0-2---2-----------------

D:---0-2---2-0----        -0-0-0-2-------------------------

A:----------------        ---------------------------------

E:-------------3--        ---------------------------------

e:-----------------0-------------------

B:-------------0-3---3-0-3-------------

G:---------0-2-------------------------

D:-0-0-0-2-----------------------------

A:-------------------------------------

E:-------------------------------------


 GAmBmGEm
 l 1>  
Guitar I : G Am Bm G Em
Guitar II:
GI : G Am Bm G Em
GII:
 GAmBmGEm
 What a drag it is this gold lame' jeans
 GAmBmGEm
 Is this the coolest way to get through your teens
 GAmBmGEm
 Well I cut my hair weird, I read that it was in
 GAmBmGEm
 I looked like a rooster that was drowned and  raised again!
 G5D5
 What are you going to do?
G5 EmVII D5
Tell you what I'm gonna do!
 G5D5
 Why don't you get away?
 G5E5AmB
 I'm gonna leave today...  
I ran into my room and I fell down on my knees
I thought that fifteen was gonna be a breeze
I picked up my guitar to blast away the clouds
But somebody in the next room yelled "you gotta turn that damn thing down!"
 G5D5
 What are you going to do?
G5 EmVII D5
Tell you what I'm gonna do!
 G5D5
 Why don't you get away?
 G5E5AmB
 I'm gonna cry all day...  
 C5Em
 And I know trouble is brewing out there
 C5D5
 But I can hardly care 
 C5Em
 They fight all night about his private secretary
 AmD5
 Lipstick stain, blond hair
 G5D5
 What are you going to do?
G5 EmVII D5
Tell you what I'm gonna do!
 G5D5
 Why don't you run away?
 G5E5
 I'm gonna leave today...
 Am
 But even I don't know what I'm gonna do
 D5
 Don't know what I'm gonna do
 G5D5
 What are you going to do?
G5 EmVII D5
Tell you what I'm gonna do!
 G5D5
 Why don't you run away?
 G5E5
 I'm gonna leave today...
Chords used :
G :320003 Am:002210 Em:022000 EmVII:X7998X G5:355XXX
D5:X577XX C5:X355XX E5:022XXX B :X24432


Am B Bm C5 D5 E5 Em G G5
variations - click chord images
Transpose chords:
Tuning:
Cool service:
View: Size:
A  A  A
Rating:
Layout:
  • Currently 3.8/5 Stars.
  • 1
  • 2
  • 3
  • 4
  • 5
 
Accuracy:
  • Currently 2.7/5 Stars.
  • 1
  • 2
  • 3
  • 4
  • 5
 
click stars to rate
Chordie recommends:
Get acoustic guitar lessons and electric guitar lessons at JamPlay.com
Songbook:
Login to add this song to your songbook
Support the artist
Preview/buy this song
MSN Music
Why this non-profit ad?

 
login to add comments/video/corrections