Police Truck

Dead Kennedys

|-----------------------------------------------------------------------------|

|3-----------------2-----------------1----------------------------------------|
|2-----------------1-----------------0----------------------------------------|
|-----------------------------------------------------------------------------|
|-----------------------------------------------------------------------------|
|-----------------------------------------------------------------------------|
|-------------7-------10-9-8-7----------8-7-6-5-------------------------------|
|0-------------------------------------------------------3-2-1-0---(pickslide)|
|-----------------------------------------------------------------------------|
|-----------------------------------------------------------------------------|
|-----------------------------------------------------------------------------|
|-----------------------------------------------------------------------------|
|-----------------------------------------------------------------------------|
|-----------------------------------------------------------------------------|
|-----------------------------------------------------------------------------|
|2-2-2-2--2-2-2-2--2-2-2-2--2-2-2-2-------------------------------------------|
|2-2-2-2--2-2-2-2--2-2-2-2--2-2-2-2-------------------------------------------|
|0-0-3-0--0-0-3-0--0-0-3-0--0-0-3-0-ect.--------------------------------------|
...beat up drunks... |--6-6--7-7----------------------------------------------|
|-----------------------------------------------------------------------------|
|-----------------------------------------------------------------------------|
|-----------------------------------------------------------------------------|
|-----------------------------------------------------------------------------|
|-----------------------------------------------------------------------------|
|-----------------------------------------------------------------------------|
|-----------------------------------------------------------------------------|
|-----------------------------------------------------------------------------|
|2-2-2-2--2-2-2-2--2-2-2-2--2-2-2-2-------------------------------------------|
|2-2-2-2--2-2-2-2--2-2-2-2--2-2-2-2-------------------------------------------|
|0-0-3-0--0-0-3-0--0-0-3-0--0-0-3-0-ect.--------------------------------------|
...no one to fear... |--6-6--7-7----------------------------------------------|
|-----------------------------------------------------------------------------|
|-----------------------------------------------------------------------------|
|-----------------------------------------------------------------------------|
|-----------------------------------------------------------------------------|
|-----------------------------------------------------------------------------|
|7----6----5--3--0|
|7----6----5--3--0|
|8----7----6--4--0|
|9----8----7--5--2|
|9----8----7--5--2|
|7----6----5--3--0|
|-----------------------------------------------------------------------------|
|--------------------3--2-1----------------------3-3-2-1----------------------|
|-----------------------------------------------------------------------------|
|-----------------------------------------------------------------------------|
|-----------------------------------------------------------------------------|
|-----------------------------------------------------------------------------|
|7----6--7--0-|
|7----6--7--0-|
|8----7--8--0-|
|9----8--9--2-|
|9----8--9--2-|
|7----6--7--0-|
|-----------------------7--7--6-6---------------------------------------------|
|-----------------------------------------------------------------------------|
|-----------------------------------------------------------------------------|
|-----------------------------------------------------------------------------|
|-----------------------------------------------------------------------------|
|-----------------------------------------------------------------------------|
|-----------------------7--7--6-6---------------------------------------------|
|-----------------------------------------------------------------------------|
|-----------------------------------------------------------------------------|
|-----------------------------------------------------------------------------|
|-----------------------------------------------------------------------------|
|-----------------------------------------------------------------------------|
|-----------------------------------------------------------------------------|
|-----------------------------------------------------------------------------|
|-----------------------------------------------------------------------------|
|2-2-2-2--2-2-2-2--2-2-2-2--2-2-2-2-------------------------------------------|
|2-2-2-2--2-2-2-2--2-2-2-2--2-2-2-2-------------------------------------------|
|0-0-3-0--0-0-3-0--0-0-3-0--0-0-3-0-ect.--------------------------------------|
...Screaming off the Street...|-----------------------------------------------|
|--------------2--2--3-3------------------------|
|-----------------------------------------------|
|-----------------------------------------------|
|-----------------------------------------------|
|-----------------------------------------------|
|7----6----5--3--0|
|7----6----5--3--0|
|8----7----6--4--0|
|9----8----7--5--2|
|9----8----7--5--2|
|7----6----5--3--0|
|-----------------------------------------------------------------------------|
|-----------------------------------------------------------------------------|
|------------------------2/3-------3\3--------0-------------------------------|
|--------------------------------------------------2--------------------------|
|-----------------------------------------------------------------------------|
|-----------------------------------------------------------------------------|
|-----------------------------------------------------------------------------|
|-----------------------------------------------------------------------------|
|-----------------------------------------------------------------------------|
|2-2-2-2--2-2-2-2--2-2-2-2--2-2-2-2-------------------------------------------|
|2-2-2-2--2-2-2-2--2-2-2-2--2-2-2-2-------------------------------------------|
|0-0-3-0--0-0-3-0--0-0-3-0--0-0-3-0-ect.--------------------------------------|
...Playing cops for pay... |-----------------------------------------------|
|--------------2--2--3-3------------------------|
|-----------------------------------------------|
|-----------------------------------------------|
|-----------------------------------------------|
|-----------------------------------------------|
|7----6--7--0-|
|7----6--7--0-|
|8----7--8--0-|
|9----8--9--2-|
|9----8--9--2-|
|7----6--7--0-|
|-----------------------------------------------------------------------------|
|-----------------------------------------------------------------------------|
|-----------------------------------------------------------------------------|
|-----------------------------------------------------------------------------|
|2-2-2-2-2-2-2-2-1-1-1--0---0-------------------------------------------------|
|------------------------------3-3--------------------------------------------|
|-----------------------------------------------------------------------------|
|-----------------------------------------------------------------------------|
|-----------------------------------------------------------------------------|
|-----------------------------------------------------------------------------|
|2-2-2-2-2-2-2-2-1-1-1--0---0-------------------------------------------------|
|------------------------------3-3--------------------------------------------|
|-----------------------------------------------------------------------------|
|-----------------------------------------------------------------------------|
|-----------------------------------------------------------------------------|
|-----------------------------------------------------------------------------|
|2-2-2-2-2-2-2-2-1-1-1--0---0-------------------------------------------------|
|------------------------------3-3--------------------------------------------|
|-----------------------------------------------------------------------------|
|-----------------------------------------------------------------------------|
|-----------------------------------------------------------------------------|
|2-2-1-1-0-0-1-1----2-2-1-1-0-0-1-1----2-2-1-1-0-0-1-1----2-2-1-1-0-0-1-1-----|
|-----------------------------------------------------------------------------|
|-----------------------------------------------------------------------------|
|-----------------------------------------------------------------------------|
|--------32323234-54545454-----------------32323234-545454545454545454545454--|
|43434343-----------------21212123-43434343-----------------------------------|
|-----------------------------------------------------------------------------|
|-----------------------------------------------------------------------------|
|-----------------------------------------------------------------------------|
|-----------------------7-7-6-6-------------------------------7-7-6-6---------|
|-----------------------------------------------------------------------------|
|-----------------------------------------------------------------------------|
|--2-----------------------------------------2--------------------------------|
|--2-----------------------------------------2--------------------------------|
|--0-----------------------------------------0--------------------------------|
|-----------------------------------------------------------------------------|
|-----------------------------------------------------------------------------|
|-----------------------------------------------------------------------------|
|2-2-2-2--2-2-2-2--2-2-2-2--2-2-2-2-------------------------------------------|
|2-2-2-2--2-2-2-2--2-2-2-2--2-2-2-2-------------------------------------------|
|0-0-3-0--0-0-3-0--0-0-3-0--0-0-3-0-ect.--------------------------------------|
...Shit in your pants...|--6-6--7-7-------------------------------------------|
|-----------------------------------------------------------------------------|
|-----------------------------------------------------------------------------|
|-----------------------------------------------------------------------------|
|-----------------------------------------------------------------------------|
|-----------------------------------------------------------------------------|
|-----------------------------------------------------------------------------|
|-----------------------------------------------------------------------------|
|-----------------------------------------------------------------------------|
|2-2-2-2--2-2-2-2--2-2-2-2--2-2-2-2-------------------------------------------|
|2-2-2-2--2-2-2-2--2-2-2-2--2-2-2-2-------------------------------------------|
|0-0-3-0--0-0-3-0--0-0-3-0--0-0-3-0-ect.--------------------------------------|
...On my dick...|--6-6--7-7---------------------------------------------------|
|-----------------------------------------------------------------------------|
|-----------------------------------------------------------------------------|
|-----------------------------------------------------------------------------|
|-----------------------------------------------------------------------------|
|-----------------------------------------------------------------------------|
|7----6----5--3--0|
|7----6----5--3--0|
|8----7----6--4--0|
|9----8----7--5--2|
|9----8----7--5--2|
|7----6----5--3--0|
|-----------------------------------------------------------------------------|
|--------------------3--2-1----------------------3-3-2-1----------------------|
|-----------------------------------------------------------------------------|
|-----------------------------------------------------------------------------|
|-----------------------------------------------------------------------------|
|-----------------------------------------------------------------------------|
|7----6--7--0-|
|7----6--7--0-|
|8----7--8--0-|
|9----8--9--2-|
|9----8--9--2-|
|7----6--7--0-|

 BBbAG
The Left Newspapers might whine a bit
 BBbAG
But the guys at the station they don't give a shit
 BBbBDBBbA
 Dispatch calls, "Are you doing something wicked?"
 BBbBDBBbAG
 "No siree, Jack, we're just givin' tickets"

Outro:

Ride, Ride How We Ride...
|7----6----5--3--0|
|7----6----5--3--0|
|8----7----6--4--0|
|9----8----7--5--2|
|9----8----7--5--2|
|7----6----5--3--0|
|-----------------------------------------------------------------------------|
|--------------------3--2-1----------------------3-3-2-1----------------------|
|-----------------------------------------------------------------------------|
|-----------------------------------------------------------------------------|
|-----------------------------------------------------------------------------|
|-----------------------------------------------------------------------------|


Ride, Ride How We Ride...
|7----6----5--3--0|
|7----6----5--3--0|
|8----7----6--4--0|
|9----8----7--5--2|
|9----8----7--5--2|
|7----6----5--3--0|
|--------------------10-9-8---10-10-8-7---------------------------------------|
|-----------------------------------------------------------------------------|
|-----------------------------------------------------------------------------|
|-----------------------------------------------------------------------------|
|-----------------------------------------------------------------------------|
|-----------------------------------------------------------------------------|


Ride, Ride How We Ride...
|7----6----5--3--0|
|7----6----5--3--0|
|8----7----6--4--0|
|9----8----7--5--2|
|9----8----7--5--2|
|7----6----5--3--0|
|-----------------------------------------------------------------------------|
|---------4-----------4------------4-------------4----------------------------|
|---------------3-----------3------------3---------------3--------------------|
|-----------------------------------------------------------------------------|
|-----------------------------------------------------------------------------|
|-----------------------------------------------------------------------------|


Ride, Low ride...
|7-----------------------6------------7------------------0--------------------|
|7-----------------------6------------7------------------0--------------------|
|8-----------------------7------------8------------------0--------------------|
|9-----------------------8------------9------------------2--------------------|
|9-----------------------8------------9------------------2--------------------|
|7-----------------------6------------7------------------0--------------------|


If there is anything wrong, e-mail me at soul_carrier_crow@hotmail.com
Enjoy,
-Travis Thorp


A B Bb D G
variations - click chord images
Transpose chords:
Tuning:
Cool service:
View: Size:
A  A  A
Rating:
Layout:
  • Currently 2/5 Stars.
  • 1
  • 2
  • 3
  • 4
  • 5
 
Accuracy:
  • Currently 0/5 Stars.
  • 1
  • 2
  • 3
  • 4
  • 5
 
click stars to rate
Chordie recommends:
Get acoustic guitar lessons and electric guitar lessons at JamPlay.com
Songbook:
Login to add this song to your songbook
Support the artist
Preview/buy this song
MSN Music
Why this non-profit ad?

 
login to add comments/video/corrections