Chordie logo

Bored   Deftones



Bored
tuning: (low to high)  DADGBE



Intro/Verse

----------------------------------  
----------------------------------  
----------------------------------  
----------------------------------  
-1-1-1-1-0--1p0------------------- 
-1-1-1-1-0--1p0-------------------  
 
PM----------------------

First Chorus 

----------------------------------------  
----------------------------------------  
-7---7----3---3----2---2--2---2--2---2--
-5---5----1---1----0---0--0---0--0---0--  
-5---5----1---1----0---0--0---0--0---0--  
-5---5----1---1----0---0--0---0--0---0--
Second and Third Choruses

--------------------------------------------------
--------------------------------------------------  
-7---7----3---3---2---2--2-2-2-2-2-2-2------------  
-5---5----1---1---0---0--0-0-0-0-0-0-0------------  
-5---5----1---1---0---0--0-0-0-0-0-0-0------------  
-5---5----1---1---0---0--0-0-0-0-0-0-0------------  
Bridge

play 3 times
------------------------
------------------------
-7-7-7-7--7-7-7-7--7-7--
-5-5-5-5--5-5-5-5--5-5--
-5-5-5-5--5-5-5-5--5-5--
-5-5-5-5--5-5-5-5--5-5--

then this

---------------------------------
-----------------------3---------
-7-7-7-7--7-7-7--3-3-3-3-5-3-----
-5-5-5-5--5-5-5--5-5-5-5-3-5-----
-5-5-5-5--5-5-5------------------
-5-5-5-5--5-5-5------------------

then no guitar for the third verse.

The song finishes off with the chorus riff just a little faster that usual.  




Important: The song above is NOT stored on the Chordie server. The original song is hosted at www.xguitar.com. Chordie works as a search engine and provides on-the-fly formatting. Chordie does not index songs against artists/composers will. To remove this song please click here.

This song is displayed as text-only. Transposing and tuning is only available for chordpro-songs.

Login - add to songbook

Rating click stars to rate

Layout
Accuracy

SHARE PAGE  

You need to log in to post comments