Alles Aus Liebe

Die Toten Hosen

 Intro + Stropben
 CAmF
1:--------------------------------------------------1----------1-------
2:------1----------1----------1----------1--------------1----------1---
3:----------0----------0----------2----------2--------2----------2-----
4:--------2----------2----------2----------2------3----------3---------
5:----3---------3----------0----------0--------------------------------
6:---------------------------------------------------------------------


 GG7
1:------3----------1---------
2:----------0----------0-----
3:--------0----------0-------
4:---------------------------
5:---------------------------
6:----3---------3------------


... wer's gerne etwas komplizierter mag, kann den Basslauf mitspielen:

C Am F (Barré)
1:--------------------------------------------------1---------1--------
2:-------1--------1------------1--------1---------------1----------1---
3:-----------0--------0------------2--------2---------2---------2------
4:---------2--------2------------2--------2----------------------------
5:----3---------3-------3-2-0---------0-------0------------------------
6:----------------------------------------------0-1---------1----------


 GG7
1:-----------3----------1--------------
2:---------------0----------0----------
3:-------------0----------0------------
4:-------------------------------------
5:--------------------------------2--3-  C  Am ...
6:----1-0-3----------3----------3------


 1.Stropbe
Ich würde dir gern sagen, wie sehr ich Dich mag
Warum ich nur noch an Dich denken kann
Ich fühl´ mich wie verhext und in Gefangenschaft
Und Du allein trägst Schuld daran

(mit dem gleichen Zupfmuster):

 AmF
Worte sind dafür zu schwach
G E (gleich gezupft wie C und Am)
Ich befürchte Du glaubst mir nicht
 AmF
Mir kommt es vor als ob mich jemand warnt:
 G
Dieses Märchen wird nicht gut ausgehn

 2.Stropbe
Es ist die Eifersucht, die mich auffrißt
Immer dann, wenn Du nicht in meiner Nähe bist
Von Dr. Jekyll werd´ ich zu Mr. Hyde
Ich kann nichts dagegen tun, plötzlich ist es so weit
Ich bin kurz davor, durchzudreh´n
Aus Angst dich zu verliern
Und daß und jetzt kein Unglück geschieht
Dafür kann ich nicht garantier´n

 Refrain
 CEAmG
Und alles nur, weil ich dich liebe   
 CFG
und ich nicht weiß wie ich´s beweisen soll
 CEAmF
Komm ich zeig dir wir groß meine Liebe ist
 GC
Und bringe mich für dich um.

 3.Stropbe
Sobald deine Laune etwas schlechter ist
Bild´ ich mir gleich ein, daß Du mich nicht mehr willst
Ich sterbe beim Gedanken daran,
Daß ich Dich nicht für immer halten kann
Auf einmal brennt ein Feuer in mir
Und der Rest der Welt wird schwarz
Ich spür wie unsere Zeit verrinnt,
Wir nähern uns dem letzten Akt

 Refrain
Und alles nur, weil ich dich liebe
und ich nicht weiß wie ich´s beweisen soll
Komm ich zeig dir wir groß meine Liebe ist
Und bringe mich für dich um.

 Solo
1:----8-8---8-8-------------8-8---8-8------------8-8----8-8----------------
2:--------8-----8---------------9-----9--------------10-----10-------------
3:----------------9--9-------------------9--9-------------------10--10-----
4:--------------------------------------------7------------------------7---
5:-----------------------10------------------------------------------------
6:-------------------------------------------------------------------------
1:------10-10-10-10-10-10-10-10-10-10-10--12-12--12-12---------------------
2:-------8--8--8--8--8--8--8--8--8--8--8-------13-----13-------------------
3:----9--------------------------------------------------12--12------------
4:---------------------------------------------------------------14--------
5:-------------------------------------------------------------------------
6:-------------------------------------------------------------------------
1:----12-12--12-12--------------12-12--12-12------------------15-15-15-15--
2:---------13-----13-----------------13-----13----------------13-13-13-13--
3:-------------------14--14--------------------14--14------14--------------
4:--------------------------14------------------------15-------------------
5:-------------------------------------------------------------------------
6:-------------------------------------------------------------------------
1:----15-15-15-15-15-15-15-15-------
2:----13-13-13-13-13-13-13-13-------
3:----------------------------------
4:----------------------------------
5:----------------------------------
6:----------------------------------


 Bridge
Ich bin kurz davor, durchzudreh´n
Aus Angst dich zu verlier´n
Und daß und jetzt kein Unglück geschieht
Dafür kann ich nicht garantier´n

 Refrain
Und alles nur, weil ich dich liebe
und ich nicht weiß wie ich´s beweisen soll
Komm ich zeig dir wir groß meine Liebe ist
Und bringe mich für dich um.


Am C E F G G7
variations - click chord images
Transpose chords:
Tuning:
Cool service:
View: Size:
A  A  A
Rating:
Layout:
  • Currently 1.6/5 Stars.
  • 1
  • 2
  • 3
  • 4
  • 5
 
Accuracy:
  • Currently 3/5 Stars.
  • 1
  • 2
  • 3
  • 4
  • 5
 
click stars to rate
Chordie recommends:
Get acoustic guitar lessons and electric guitar lessons at JamPlay.com
Songbook:
Login to add this song to your songbook
Support the artist
Preview/buy this song
MSN Music
Why this non-profit ad?

 
login to add comments/video/corrections