Guitar Tabs, Chords and Lyrics


Call of the Wild   Die Toten Hosen

[Intro] 
     [Em]            [G]              [Am]              [C]                     
E |-----------------------------------------------------:|
H |-----------------------------------------------------:|
G |-------4----4-4-5-4--4----4-4-2-2--2----2-2----------:|
D |--2-----------------------------------------5-5--5---:|
A |-----------------------------------------------------:|
E |-----------------------------------------------------:|

     [Em]                     [D]                                       
E |---------------------------------------|
H |---------------------------------------|
G |-------4-2----4--------2---------------|
D |--2--------5----------------5--4--2----|
A |---------------------------------------|
E |---------------------------------------|


[1.Stropbe]                             _
(Em) (G) |
It's dry, it's dusty |
(D) (Am) |
the nights are long and cold | (bass and drums only)
(Em) (G) |
Your life is like a desert |
(D) (Am) |
you're scared of growing old _|

(Sologitarre ab "you can hear...")
E |----------------------------------------------------|
H |----------------------------------------------------|
G |----------------------------------------------------|
D |---------5------5--4-5-4----------5-----5--4-5-4----|
A |----7------5------------------7-----5-------------7-|
E |--7-------------------------7-----------------------|


Palm muted

You can h[Em]ear the clock t[G]icking
like a h[D]ammer on a s[Am]tone
Remem[Em]ber this - you're n[G]ot alone
you're n[D]ot alone, YOU'RE N[Am]OT ALONE...

[Refrain] 
Come [Em]on! Can you h[G]ear it?
The c[D]all of the w[Am]ild
Stand [Em]up now and f[G]ight back
Wipe o[D]ff their plastic sm[Am]iles
(Sologitarre auf "wild" und "smiles")
E |--------------|
H |--------------|
G |--------------|
D |--5--4-5-4----|
A |-----------7--|
E |--------------|


[Zwiscbenspiel] 
     [Em]                     [D]                                       
E |---------------------------------------|
H |---------------------------------------|
G |-------4-2----4--------2---------------|
D |--2--------5----------------5--4--2----|
A |---------------------------------------|
E |---------------------------------------|


[2.Stropbe] 
You crawled out of the ocean
your pulse was slow and weak
Got up on your two legs
put on clothes and learned to speak
Ended up abandoned
in a place that they call home
Remember this - you're not alone
you're not alone, YOU'RE NOT ALONE...

[Refrain] 
Come on! Can you hear it?
The call of the wild
Stand up now and fight back
Wipe off their plastic smiles
Why li[Em]sten to the lose[G]rs
who still t[D]reat you like a c[Am]hild
Better f[Em]ind another stat[G]ion
Tune i[D]n the call of the wi[Am]ld
The call of the wi[C]ld     _
Am |
call of the wild _| Solopart von Refrain)
c[C]all of the wi[Em]ld

[1.Solo] 
         [Em]            [D]          [C]           [Bm]                      
E |---------------------------------------------------|
H |---------------------------------------------------|
G |---------------------------------------------------|
D |-------2----5--2-------4----------2----------------|
A |--2---------------5-------5--3-------3--2----5--2--|
E |---------------------------------------------------|


[2.Solo] 
     [A]            [C]           [G]        [G]                            
E |---------------------------------------------------|
H |---------------------------------------------------|
G |---------------------------------------------------|
D |-11-11----11-10-10----10-9-9----9-9--9-9-----------|
A |--0---------------------------------------12-11-9--|
E |---------------------------------------------------|

     [A]            [C]           [G]        [G]                            
E |---------------------------------------------------|
H |---------------------------------------------------|
G |---------------------------------------------------|
D |-11-11---11br-10-10---10-9-9----9-9--9-9-----------|
A |------------------------------------------12-11-9--|
E |---------------------------------------------------|

_ _ _ _ _ (1) _ _ _ _
A C | G
E |:---------------------------------------------------|
H |:-----------------------------------------8-----7b--|
G |:---12------11b--11----12-9----11b--11------9-------|
D |:-11--11-11----------10-----10----------9-----9-----|
A |:---------------------------------------------------|
E |:---------------------------------------------------|

_ _ _ _ (1) _ _ _ _ _ _ _ _ _ _ _ (2) _ _ _ _ _
(G) | | (G) |
E |----------------------:|------------/12-------------|
H |-7--------------------:|----------------------------|
G |---9------------------:|--11b--11-------------------|
D |-----9--9--9----------:|----------9-----------------|
A |-------------12-11-9--:|----------------------------|
E |----------------------:|----------------------------|


[Zwiscbenspiel] 

[2.Stropbe] 
They'll tell you that they love you
like a spider loves a fly
Promise you you're safe
but never look you in the eye
Manipulated, regulated
crippled and controlled
Remember this - you're not alone
you're not alone, YOU'RE NOT ALONE...

[Refrain] 
Come on! Can you hear it?
The call of the wild
Stand up and fight back
And kill their plastic smiles
Why listen to the losers
who still treat you like child?
Tune in to the call of the wild
The call of the wi[C]ld     _
Am |
call of the wild _| Solopart von Refrain
c[C]all of the wi[Em]ld

[1.Solo/Coda] 
         [Em]            [D]          [C]           [Bm]                      
E |---------------------------------------------------|
H |---------------------------------------------------|
G |---------------------------------------------------|
D |-------2----5--2-------4----------2----------------|
A |--2---------------5-------5--3-------3--2----5--2--|
E |---------------------------------------------------|

     [Am]           [G]           [Em]                                     
A |-------3------------------------|
E |--5-------5--3----5--3--0-------|


Important: The song above is NOT stored on the Chordie server. The original song is hosted at www.xguitar.com. Chordie works as a search engine and provides on-the-fly formatting. Chordie does not index songs against artists'/composers' will. To remove this song please click here.

Text color:
Chord color:
Chord grids: 
Font size:    
Page size: 

A Am Bm C D Em G
variations - click chord images

Login - add to songbook

Transpose chords

Tuning

Rating click stars to rate

Layout
Accuracy

SHARE PAGE  




You need to log in to post comments