""; ?> Gone by Dispatch - guitar chords, guitar tabs and lyrics - chordie

Gone

Dispatch

 GCF#AEmCDadd9GM7G6G6
--------------------------------0-----------------------3--|
------------------------0-------0-----------------------3--|
------------------------4-------0-------0-0-----0---0---0--|	x1
-0--------------0-------0-------2-------2s4-----4---2---2--|
-2-----s7-------0-------0-------2-------3s5----------------|
-3-----s8-------2-------5-------0--------------------------|


 GCF#ABEmCDadd9CCadd9Cadd9
----------------------------------------0-------------------3------3--|
----------------------------------------0-------------------3------3--|
----------------------------------------0-------0-----------0------0--|	x1
-0------0-------0-------0-----0---------2-------2s4-------0-2------2--|
-2-----s7-------0-------0-----0---------2-------3s5---5s3-3-3------3--|
-3-----s8-------2-------5-----5s7-------0-----------------------------|


 GCF#ABEmCDadd9CCadd9
----------------------------------------0-------------------3----|
----------------------------------------0-------------------3----|
----------------------------------------0-------0-----------0----|	x1
-0------0-------0-------0-----0---------2-------2s4-------0-2----|
-2-----s7-------0-------0-----0---------2-------3s5---5s3-3-3----|
-3-----s8-------2-------5-----5s7-------0------------------------|


 GCF#ABEmEmCadd9
----------------------------------------0-------0-------3----|
----------------------------------------0-------0-------3----|
----------------------------------------0-------0-------0----|	x1
-0------0-------0-------0-----0---------2-------2-------2----|
-2-----s7-------0-------0-----0---------2-------2-------3----|
-3-----s8-------2-------5-----5s7-------0-------0------------|


(SLOW)
 GF#EmCadd9
-3--------------0-------3---|
-3--------------0-------3---|
-0--------------0-------0---|	x1
-0------0-------2-------2---|
-2------0-------2-------3---|
-3------2-------0-----------|


 GCF#ABEmCDadd9CCadd9
----------------------------------------0-------------------3----|
----------------------------------------0-------------------3----|
----------------------------------------0-------0-0---------0----|	x1
-0------0-------0-------0-----0---------2-------2s4-------0-2----|
-2-----s7-------0-------0-----0---------2-------3s5---5s3-3-3----|
-3-----s8-------2-------5-----5s7-------0------------------------|


(SLOW)
 GF#EmCadd9
-3--------------0-------3---|
-3--------------0-------3---|
-0--------------0-------0---|	x1
-0------0-------2-------2---|
-2------0-------2-------3---|
-3------2-------0-----------|


 GF#EmCadd9
-3--------------0-------3---|
-3--------------0-------3---|
-0--------------0-------0---|	x1
-0------0-------2-------2---|
-2------0-------2-------3---|
-3------2-------0-----------|


 GF#EmCadd9
-3---------------0-------3---|
-3---------------0-------3---|
-0---------------0-------0---|	x2
-0-------0-------2-------2---|
-2--0h2--0--0h2--2-------3---|
-3-------2-------0-----------|


 GF#EmCadd9Cadd9
-3--------------0-------3-------3---|
-3--------------0-------3-------3---|
-0--------------0-------0-------0---|	x1
-0------0-------2-------2-------2---|
-2------0-------2-------3-------3---|
-3------2-------0-------------------|


 AmDAmCAmD
-0------2-------0-------0-------0-------2--|
-1------3-------1-------1-------1-------3--|
-2------2-------2-------0-------2-------2--|	x1
-2------0-------2-------2-------2-------0--|
-0--------------0-------3-------0----------|
-------------------------------------------|


 GCF#EmCadd9
------------------------------0-----------------3----|
------------------------------0-----------------3----|
------------------------------0---0---0-0-------0----|	x1
-0------0-------0------0-0----2---2s4-4-4s2-2-2-2----|
-2------7-------0------0-0----2---3s5-5-5s3-3-3-3----|
-3------8-------2------8-7----0----------------------|


 GCF#EmCadd9Cadd9
------------------------------0-----------------3------3--|
------------------------------0-----------------3------3--|
------------------------------0---0---0-0-------0------0--|	x1
-0------0-------0------0-0----2---2s4-4-4s2-2-2-2------2--|
-2------7-------0------0-0----2---3s5-5-5s3-3-3-3------3--|
-3------8-------2------8-7----0---------------------------|


 GF#EmCadd9
-3--------------0-------3---|
-3--------------0-------3---|
-0--------------0-------0---|	x8
-0------0-------2-------2---|
-2------0-------2-------3---|
-3------2-------0-----------|
------------------0-------3--|
------------------0-------3--|
------------------0--0-0--0--|	x1
-0--0--0--0--0----2--2s4--2--|
-2--7--0--0--0----2--3s5--3--|
-3--8--2--5--5s7--0----------|


 AmDAmCAmD
-0------2-------0-------0-------0-------2--|
-1------3-------1-------1-------1-------3--|
-2------2-------2-------0-------2-------2--|	x1
-2------0-------2-------2-------2-------0--|
-0--------------0-------3-------0----------|
-------------------------------------------|


 GF#EmCadd9
-3--------------0-------3---|
-3--------------0-------3---|
-0--------------0-------0---|	x15
-0------0-------2-------2---|
-2------0-------2-------3---|
-3------2-------0-----------|



A Am B C Cadd9 D Dadd9 Em F# G G6 Gm7
variations - click chord images
Transpose chords:
Tuning:
Cool service:
View: Size:
A  A  A
Rating:
Layout:
  • Currently 3.8/5 Stars.
  • 1
  • 2
  • 3
  • 4
  • 5
 
Accuracy:
  • Currently 3.7/5 Stars.
  • 1
  • 2
  • 3
  • 4
  • 5
 
click stars to rate
Chordie recommends:
Learn to play this song & others via video guitar lessons at JamPlay.com
Songbook:
Login to add this song to your songbook
Support the artist
Preview/buy this song
MSN Music
Why this non-profit ad?

 
login to add comments/video/corrections