Chordie logo


Stupify   Disturbed



 ----------------------------------------------------------------------------------------------

	     SONG: Stupify
	     BAND: Disturbed
	    ALBUM: The Sickness
   TRANSCRIBED BY: Trevor Jones (timmy91199@yahoo.ca)

 ----------------------------------------------------------------------------------------------

	TUNING: tune your guitar down half a step and then drop d (Db,Ab,Db,Gb,Bb,Eb)
     INTRO:

    Gb|-----------------------------------------------------|
    Db|-8--0--1-0---1--0-3-1-0-3--8--0--1-0--1-3-1-3-1-0----|
    Ab|-8--0--1-0---1--0-3-1-0-3--8--0--1-0--1-3-1-3-1-0-3--|
    Db|-8--0--1-0---1--0-3-1-0-3--8--0--1-0--1-3-1-------3--|

    Gb|-----------------------------------------------------|
    Db|-8--0--1-0---0-1-1-3-1-0-3--8--0--1-0--1---1---------|
    Ab|-8--0--1-0---0-1-1-3-1-0-3--8--0--1-0--1-3-1-3-3-3-3-|
    Db|-8--0--1-0---0-1-1-3-1-0-3--8--0--1-0----3---3-3-3-3-|

    Gb|-----------------------------------------------------|
    Db|-8--0--1-0---1--0-3-1-0-3--8--0--1-0--1-3-1-3-1-0----|
    Ab|-8--0--1-0---1--0-3-1-0-3--8--0--1-0--1-3-1-3-1-0-3--|
    Db|-8--0--1-0---1--0-3-1-0-3--8--0--1-0--1-3-1-------3--|

    Gb|-----------------------------------------------------|
    Db|-8--0--1-0---1--0-3-1-0-3--8--0--1-0--1-1-1-0-0--1---|
    Ab|-8--0--1-0---1--0-3-1-0-3--8--0--1-0--1-1-1-0-0--1---|
    Db|-8--0--1-0---1--0-3-1-0-3--8--0--1-0--1-1-1-0-0--1---|

    1ST VERSE: (gtr 1 x7  Riff A)

    Eb|-----------------6--8----------------------5----|
    Bb|----------6-6-6-------------------------4-------|
    Gb|---------------------------------2-2-2----------|
    Db|-0--0--0----------------0--0--0-----------------|
    Ab|-0--0--0----------------0--0--0-----------------|
    Db|-0--0--0----------------0--0--0-----------------|

               (gtr 2 x8  Riff B)

    Eb|-10------------10-------------|
    Bb|----11---10-------11---10-----|
    Gb|------------------------------|

               (gtr 1)

    Eb|-----------------8----------------------5-5---5--|
    Bb|----------6-6-6------------------4-4-4------3----|
    Gb|-------------------------------------------------| 
    Db|-0--0--0----------------0--0--0------------------|
    Ab|-0--0--0----------------0--0--0------------------|
    Db|-0--0--0----------------0--0--0------------------|

      CHORUS:

    Gb|-----------------------------------------------------|
    Db|-8--0--1-0-0-1--0-3-1-0-3--8--0--1-0--1-3-1---1-0----|
    Ab|-8--0--1-0-0-1--0-3-1-0-3--8--0--1-0--1-3-1-3-1-0-3--|
    Db|-8--0--1-0-0-1--0-3-1-0-3--8--0--1-0--1-3-1-------3--|
                                       
    Gb|-----------------------------------------------------|
    Db|-8--0--1-0--0-1-1-3-1-0-3--8--0--1-0--1---1----------|
    Ab|-8--0--1-0--0-1-1-3-1-0-3--8--0--1-0--1-3-1-3-3-3-3--|
    Db|-8--0--1-0--0-1-1-3-1-0-3--8--0--1-0----3---3-3-3-3--|

    Gb|-----------------------------------------------------|
    Db|-8--0--1-0-0-1--0-3-1-0-3--8--0--1-0--1-3-1-3-1-0----|
    Ab|-8--0--1-0-0-1--0-3-1-0-3--8--0--1-0--1-3-1-3-1-0-3--|
    Db|-8--0--1-0-0-1--0-3-1-0-3--8--0--1-0--1-3-1-------3--|
                                       
    Gb|-----------------------------------------------------|
    Db|-8--0--1-0--0-1-1-3-1-0-3--8--0--1-0---1-1-1-0-0-1---|
    Ab|-8--0--1-0--0-1-1-3-1-0-3--8--0--1-0---1-1-1-0-0-1---|
    Db|-8--0--1-0--0-1-1-3-1-0-3--8--0--1-0---1-1-1-0-0-1---|

     CHORUS TAG: (x4)

    Gb|-----------------------------|
    Db|-0--0--0---------------------|
    Ab|-0--0--0---------------------|
    Db|-0--0--0----0-0-0-0-0--0-----|
     2ND VERSE: (w/ Riff A x4, Riff B x16)

     x2  let ring

    Gb|-----------------------------------------------------|
    Db|-0------------------------0--------------------------|
    Ab|-0------------------------0--------------------------|
    Db|-0------------------------0--------------------------|

    Gb|------------------------------|
    Db|------------------------------|
    Ab|-1----0---------1----0--------|  x3
    Db|-0----0---------0----0--------|

    Eb|---------------------5--5-----|
    Bb|--------------4-4-4--4--4-----|
    Gb|---------------------2--2-----|
    Db|------------------------------|
    Ab|-1----0---1-------------------|
    Db|-0----0---0-------------------|

     CHORUS:

     CHORUS: (w/ sitar effect  x7)

    Eb|-----------------------|
    Bb|-----3-------4-----4---|
    Gb|-----------------------|
    Db|-0--------0------0-----|

    Eb|-----------------------|
    Bb|-----3-----------------|
    Gb|-----------------------|
    Db|-0--------0------------|

     BRIDGE: (w/ wah)

    Gb|-----------------------------------------------------|
    Db|-----3--------3-----------------3--------3---1-0-1-0-|
    Ab|-0---3----0---3---0---1-1--0----3----0---3---1-0-1-0-|
    Db|-0--------0-------0---1-1--0---------0---------------|

     double time feel x2

    Gb|-----------------------------------------------------|
    Db|-8--0--1-0--1-1-1-0-0-0-0--1--0--0-0--1-1-1-0-0-0-0--|
    Ab|-8--0--1-0--1-1-1-0-0-0-0--1--0--0-0--1-1-1-0-0-0-0--|
    Db|-8--0--1-0--1-1-1-0-0-0-0--1--0--0-0--1-1-1-0-0-0-0--|

     CHORUS: 

     play double time feel x 3 1/2 then play this

    Gb|--------------------------------| 
    Db|-1--0-0-0-0-1--0-0-0-0-1--0-0---|
    Ab|-1--0-0-0-0-1--0-0-0-0-1--0-0---|
    Db|-1--0-0-0-0-1--0-0-0-0-1--0-0---|

     OUTRO: (x4)

    Gb|----------------------------------|
    Db|-1-0--1-0--1-0--1-3-1-3-1-0-------|
    Ab|-1-0--1-0--1-0--1-3-1-3-1-0-3-----|
    Db|-1-0--1-0--1-0--1-3-1-----0-3-----|

    Gb|--------------------------------|
    Db|-1--0--1-0--1-3-1-3-1-0-3-------|
    Ab|-1--0--1-0--1-3-1-3-1-0-3-------|
    Db|-1--0--1-0--1-3-1-----0-3-------|

      Fig 2

    Gb|-------------------------------|
    Db|-1-0--1-0--1-0--1-3-0-1-3-1-2--|
    Ab|-1-0--1-0--1-0--1-3-0-1-3-1-2--|  x3
    Db|-1-0--1-0--1-0--1-3-0-1-3-1-2--|

    Gb|--------------------------------|
    Db|-1-0--1-0--1-0--1-3-0-1-3-0-1---|
    Ab|-1-0--1-0--1-0--1-3-0-1-3-0-1---|
    Db|-1-0--1-0--1-0--1-3-0-1-3-0-1---|

    Gb|--------------------------------|
    Db|-1-0--1-0--1-0--1-3-0-1-0-0-0---|
    Ab|-1-0--1-0--1-0--1-3-0-1-0-0-0---|
    Db|-1-0--1-0--1-0--1-3-0-1-0-0-0---|

      fig 2 x 2

    Gb|-----------------------|
    Db|-1-0------1-0----------|
    Ab|-1-0------1-0----------|
    Db|-1-0------1-0----------|







Important: The song above is NOT stored on the Chordie server. The original song is hosted at www.xguitar.com. Chordie works as a search engine and provides on-the-fly formatting. Chordie does not index songs against artists/composers will. To remove this song please click here.

This song is displayed as text-only. Transposing and tuning is only available for chordpro-songs.

Login - add to songbook

Rating click stars to rate

Layout
Accuracy

SHARE PAGE  




You need to log in to post comments