Chordie logo

Burn    Dope



Dope - Burn
Tabbed By - Emery_Rocks
Email - emery_Rocks@punkmusic.com

*When it says intro you do the whole riff,
                          main intro means just that half of the riff*

Intro:                         Main intro
|---------------------|----------------------------------------|
|---------------------|----------------------------------------|
|---------------------|----------------------------------------|
|--00-20--30--35------|------7--000----7--000--7--000-----30-35|
|--00-20--30--35------|------7--000----7--000--7--000-----30-35| 2x
|--00-20--30--35------|------7--000----7--000--7--000-----30-35|
                                ...       ...     ...
        Chorus
|------------------------------------------------------------------------------------------------|
|------------------------------------------------------------------------------------------------|
|----------------------------------------------------------------------------------------------5~|
|-----------------------3---------------------30-35----------------3------------0-7--0-6-0-5-----|
|-----------------------3---------------------30-35----------------3------------0-7--0-6-0-5-----|
|--000000000000000000---3---000000000000000---30-35-0000000000000--3------------0-7--0-6-0-5-----

   .................        ..............          ............   3x

Interlude:
|-------------------------------|
|-------------------------------|
|-------------------------------|
|-0 3--0--3-5-3----0-3--0--3-6-3| 1x
|-0-3--0--3-5-3----0-3--0--3-6-3|
|-0-3--0--3-5-3----0-3--0--3-6-3|

Outro
|----------------|
|----------------|
|----------------|
|--33--33-3303035|
|--33--33-3303035|
|--33--33-3303035|

Order of song:
Intro 2x
Chorus 3x
Interlude 1x
Intro 2x
Chorus 3x
Interlude 1x
Intro: 2x
Interlude: 2x
Main intro: 3x
Interlude: 4x
Intro:3x


Important: The song above is NOT stored on the Chordie server. The original song is hosted at www.xguitar.com. Chordie works as a search engine and provides on-the-fly formatting. Chordie does not index songs against artists/composers will. To remove this song please click here.

This song is displayed as text-only. Transposing and tuning is only available for chordpro-songs.

Login - add to songbook

Rating click stars to rate

Layout
Accuracy

Jango Player

SHARE PAGE  



You need to log in to post comments