Guitar Tabs, Chords and Lyrics


As One    Dropkick Murphys



Song: As One
Artist: Dropkick Murphys
Album: Blackout

Name and Email: jonathan

Additional Info: if you are confused with " double time" it means you play the not twice as many times.also do not steal this tab.

Tuning: Eb, Ab, Db, Gb, Bb, Eb,


bagpipes do the riff twice, this comes in the second time the pipes play the riff
2x
|--------------------------------------------------------------|
|--------------------------------------------------------------|
|---9-----9--11-9-11-------------------------------------------|
|9--9--6--9--11-9-11-------------------------------------------|
|9--7--6--7--9--7-9--------------------------------------------|
|7-----4-------------------------------------------------------|
after
|---------9-999999----------9-999999-11111111-9-999999-11111111-
|9-999999-9-999999-6-666666-9-999999-11111111-9-999999-11111111-
|9-999999-7-777777-6-666666-7-777777-9-999999-7-777777-9-999999-
|7-777777----------4-444444-------------------------------------
|-------------------------------------|-------------------------
|-------------------------------------|-------------------------
|----------9-999999-----------9-999999|11111111-9-999999-1111111
|9-999999--9-999999--6-666666-9-999999|11111111-9-999999-1111111
|9-999999--7-777777--6-666666-7-777777|9-999999-7-777777-9999999
|7-777777------------4-444444---------|-------------------------
chorus           first time      second time
|-------------|----------------|--------------------------------
|-------------|----------------|--------------------------------
|4-4-44-6-6-66|2-22222222222222|2-222222-4-444444---------------
|2-2-22-6-6-66|2-22222222222222|2-222222-4-444444---------------
|-------4-4-44|0-00000000000000|0-000000-2-222222---------------
intro part again
|---------9-999999----------9-999999-11111111-9-999999-11111111-
|9-999999-9-999999-6-666666-9-999999-11111111-9-999999-11111111-
|9-999999-7-777777-6-666666-7-777777-9-999999-7-777777-9-999999-
|7-777777----------4-444444-------------------------------------

|-------------------------------------|-------------------------
|-------------------------------------|-------------------------
|----------9-999999-----------9-999999|11111111-9-999999-1111111
|9-999999--9-999999--6-666666-9-999999|11111111-9-999999-1111111
|9-999999--7-777777--6-666666-7-777777|9-999999-7-777777-9999999
|7-777777------------4-444444---------|-------------------------

chorus           first time      second time
|-------------|----------------|--------------------------------
|-------------|----------------|--------------------------------
|4-4-44-6-6-66|2-22222222222222|2-222222-4-444444---------------
|2-2-22-6-6-66|2-22222222222222|2-222222-4-444444---------------
|-------4-4-44|0-00000000000000|0-000000-2-222222---------------
this plays after chorus and during solo
|--------------------------------------------------------------|
|--------------------------------------------------------------|
|---9-----9--11-9-11-------------------------------------------|
|9--9--6--9--11-9-11-------------------------------------------|
|9--7--6--7--9--7-9--------------------------------------------|
|7-----4-------------------------------------------------------|
solo
|----7----------------------------------------------------------
|--------------------------------------------------------------
|6b7---b7-6-4---4-6h9-8-6-4-4-----------4---44------------------
|-------------6---------------6-44-44-6---6----6----------------
|---------------------------------------------------------------
|---------------------------------------------------------------

|------------------------------------------7--------------------
|--------------------------------------------------------------
|6h9-8-6-4-------------------4---4-4---6b7---b7-6-4-4-----------
|----------6-4-4-6-4-4-6-4-6---6-----6--------------------------
|---------------------------------------------------------------
|---------------------------------------------------------------

|-----9---------------------------------------------------------
|9b11--11b9-7-7h9-7---------------------------------------------
|-------------------6h8-6---------------------------------------
|---------------------------------------------------------------
|---------------------------------------------------------------
|---------------------------------------------------------------

chorus           first time      second time
|-------------|----------------|--------------------------------
|-------------|----------------|--------------------------------
|4-4-44-6-6-66|2-22222222222222|2-222222-4-444444---------------
|2-2-22-6-6-66|2-22222222222222|2-222222-4-444444---------------
|-------4-4-44|0-00000000000000|0-000000-2-222222---------------
after
|-------------|-----------|---------------|--------------------
|-------------|-----------|---------------|---------------------
|9-9----------|-----------|------------4-4|-9999999911111111----
|9-9-9-9-6-6-4|2-222-6-6-4|2-2-6-6-2-2-4-4|-9999999911111111----
|7-7-9-9-6-6-4|2-222-6-6-4|2-2-6-6-2-2-2-2|-7777777799999999----


Important: The song above is NOT stored on the Chordie server. The original song is hosted at www.xguitar.com. Chordie works as a search engine and provides on-the-fly formatting. Chordie does not index songs against artists'/composers' will. To remove this song please click here.

This song is displayed as text-only. Transposing and tuning is only available for chordpro-songs.

Login - add to songbook

Rating click stars to rate

Layout
Accuracy

SHARE PAGE  




You need to log in to post comments