"yes"; ?> Superman by Five For Fighting - guitar chords, guitar tabs and lyrics - chordie
E[-------------------------------------------------------]

B[---1-1--3-3--3-3-1-1----1-1--3-3----3---3-1-1----------]
G[---0-0--0-0--0-0-0-0----0-0--0-0--0---0-----0----------]
D[-------------------------------------------------------]
A[-3--------------------0--------------------------------]
E[-------------------------------------------------------]
E[-------------------------------------------------------]
B[---1-1--3-3--3-3-1-1----1-1--3-3----3---3-1-1----------]
G[---0-0--0-0--0-0-0-0----0-0--0-0--0---0-----0----------]
D[-------------------------------------------------------]
A[-3--------------------0--------------------------------]
E[-------------------------------------------------------]
E[-1-0------------1-3-0-------1-0--------------1-3-0-----]
B[-----1---3--1-3-----------------1---3--0-1-3-----------]
G[-------0--------------5-2---------0----------------5-2-]
D[-------------------------------------------------------]
A[-------------------------------------------------------]
E[-------------------------------------------------------]
E[-----0-3-----0-3--------1-0----1-0-----------0---------]
B[-1-3-----1-3------1---1-----1------1--3--1-----3-0-1---]
G[--------------------2----------------------0-----------]
D[-------------------------------------------------------]
A[-------------------------------------------------------]
E[-------------------------------------------------------]

 CG
       I can't stand to fly
 AmF
      I'm not that naive
 CG
      I'm just out to find
 AmF
      The better part of me

 CC/B
                 I'm more than a bird, I'm more than a plane
 AmF
                 I'm more than some pretty face beside a train
 CGFC
                 And it's not easy to be me    

I wish that I could cry

Fall upon my knees

Find a way to lie

Bout a home I'll never see

It may sound absurd, but don't be naive
Even heroes have the right to bleed
I may be disturbed, but won't you concede
Even heroes have the right to dream
 CGFCC/B
And it's not easy to be me       

 AmAm/BCC/DAm
                             Up, up and away, away from me

 D
                             Well it's alright 

 CD
                             You can all sleep sound tonight    
 FCFGsus4G
                             I'm not crazy... or anything  

I can't stand to fly
I'm not that naive
Men want men to ride
With clouds between their knees

 CC/B
                 I'm only a man in a silly red sheet    
Am F (repeat chords)
Digging for kryptonite on this one way street
Only a man in a phony red sheet
Looking for special things inside of me
Inside of me...
Inside of me...
Yeah, inside of me...
Inside of me...

I'm only a man in a phony red sheet
I'm only a man looking for a dream
I'm only a man in a phony red sheet
And it's not easy...
(no chord) C add2 G add5 add4 Am add4 F add6 F C
It's not easy to be me...

 C/BAmAm/BCC/DDGsus4
         e |--0--0---0---------------3--
         B |--1--1---1---5--5--3---1--
         G |--0--2---2---5--5--2---0--
         D |--0--2---2---5--5--0---0--
         A |--2--0---2---3--5--0---2--
         E |---------------------2---3--



Am Am/B C C/B C/D D F G Gsus4
variations - click chord images
Transpose chords:
Tuning:
Cool service:
View: Size:
A  A  A
Rating:
Layout:
  • Currently 2.5/5 Stars.
  • 1
  • 2
  • 3
  • 4
  • 5
 
Accuracy:
  • Currently 2.9/5 Stars.
  • 1
  • 2
  • 3
  • 4
  • 5
 
click stars to rate
Chordie recommends:
Check out JamPlay.com for online video guitar lessons
Songbook:
Login to add this song to your songbook
Support the artist
Preview/buy this song
MSN Music
Why this non-profit ad?

 
login to add comments/video/corrections