Chordie logo


The Deepest Blues Are Black   Foo Fighters



Tuning: eBGDAE

Intro/Verse


e||--8---11--8---11--13--8---11--8--||
B||--x---x---x---x---x---x---x---x--||
G||--10--13--10--13--15--10--13--10-||
D||--10--13--10--13--15--10--13--10-||
A||--8---11--8---11--13--8---11--8--||
E||---------------------------------||

Gtr.2 (If guitar 1 makes u trouble like it has made for me u can play this one all the
time. Anyway this guitar comes also in some parts of the song, listen it to get them)
e||--1--4--1--4--6--1--4--1-||
B||--1--4--1--4--6--1--4--1-||
G||--2--5--2--5--7--2--5--2-||
D||--3--6--3--6--8--3--6--3-||
A||--3--6--3--6--8--3--6--3-||
E||--1--4--1--4--6--1--4--1-||


Chorus
             2x
e||--1--0-------|--3----||
B||--1--0-------|--3----||
G||--2--1--3--2-|--4--3-||
D||--3--2--3--2-|--5--3-||
A||--3--2--1--0-|--5--1-||
E||--1--0-------|--3----||


Bridge

Gtr.1         2x
e||--1--4-------|--4-||
B||--1--4-------|--4-||
G||--2--5--5--3-|--5-||
D||--3--6--6--3-|--6-||
A||--3--6--6--1-|--6-||
E||--1--4--3----|--4-||

Gtr.2 (During the second part of the bridge)
e||-------------------------------||
B||-------------------------------||
G||--6--8--10--12--13--15--17--20-||
D||--x--x--x---x---x---x---x---x--||
A||--4--6--8---10--11--13--15--18-||


Important: The song above is NOT stored on the Chordie server. The original song is hosted at www.xguitar.com. Chordie works as a search engine and provides on-the-fly formatting. Chordie does not index songs against artists/composers will. To remove this song please click here.

This song is displayed as text-only. Transposing and tuning is only available for chordpro-songs.

Login - add to songbook

Rating click stars to rate

Layout
Accuracy

SHARE PAGE  




You need to log in to post comments