Chordie logo


Virginia Moon   Foo Fighters



Song: Virginia Moon
Band: Foo Fighters
Tabber: Gary Gatehouse

Verse
e||-------------------------------------------||
B||------------------------6------------------||
G||--5--5--5--3-----5-3------3----3--4--3--3--||
D||--6--5--4--3-----3----------3--2--2--2--2--||
A||--4--7--6--5--5------5---------4--4--4--x--||
E||----------------------------------------2--||


Chorus
e||--------||
B||--------||
G||--3--3--||
D||--4--2--||     switch between these two chords
A||--2--x--||
E||-----2--||

e||--------------------------------------------||
B||--------------------------------------------||
G||--------------------0--------4--4--4--3--3--||
D||--------2--------2-----2-----4--4--5--4--4--||
A||-----2-----2--2-----------2--2--6--5--4--2--||
E||--0-----------------------------------------||

("In the morning...")
under this the electric rhythm guitar plays
e||--7-------7-----------------6--11--10--9---6--||
B||--9-------8-----------------7--12--12--11--7--||
G||--9-------9-----------------8--11--12--10--8--||
D||----------------------------------------------||
A||----------------------------------------------||
E||----------------------------------------------||


Lead Break
e||-------------------------------------8--9--11--9--8---------------------------|
B||------------------------------------6----------------11--9--11b12b11-------9--|
G||------------5--5--1--3--5--5b6--5--6----------------------------------9s10----|
D||------3--6--------------------------------------------------------------------|
A||-3-4--------------------------------------------------------------------------|
E||------------------------------------------------------------------------------|

e|----------------------------------------------------------------2--||
B|-11--9--11--9--11b12--11--9--11b12--11-----------------------2-----||
G|----------------------------------------------------------3--------||
D|----------------------------------------------------3--4-----------||
A|----------------------------------------------1--4-----------------||
E|----------------------------------------1--2-----------------------||


Electric rhythm guitar plays this under the lead break
e||--8---8---8---6--6--7--2--||
B||--9---8---7---6--5--5--2--||
G||--10--9---8---7--6--6--3--||
D||--11--10--10-----------4--||
A||--------------------------||
E||--------------------------||


Electric rhythm guitar plays this under the subsequent chorus
e||--6--2--||
B||--7--2--||
G||--8--3--||    Switch between these two chords
D||--9--4--||
A||--------||
E||--------||


Acoustic rhythm guitar finishes with this chord:
e||--2--||
B||--2--||
G||--3--||
D||--4--||
A||--2--||


Important: The song above is NOT stored on the Chordie server. The original song is hosted at www.xguitar.com. Chordie works as a search engine and provides on-the-fly formatting. Chordie does not index songs against artists/composers will. To remove this song please click here.

This song is displayed as text-only. Transposing and tuning is only available for chordpro-songs.

Login - add to songbook

Rating click stars to rate

Layout
Accuracy

SHARE PAGE  




You need to log in to post comments