Chordie logo


What If I Do?   Foo Fighters



Song: What if i do
Band: Foo Fighters
Tabber: Gary Gatehouse

Intro/Verse
   Gtr. 1
e||----------------------------------------------------3-----3-------3---3-3--||
B||----------------------------------------------------1-----1-------1---1-1--||
G||----2-----4-----0-----2-----4-----2-----0----0------0-----0-----0-0---0-0--||
D||---------------------------------------------0h2----2-----2-----2----------||
A||-3-----3-----3-----3-----3-----3-----3-----3----(3)-3-----3---3-3----------||
E||---------------------------------------------------------------------------||

   Gtr. 2
e||------------------------------------------------||
B||------------------------------------------------||
G||-----10-----12-----14-----16---/12-12-12--10-9--||
D||-/10----/10----/14----/14-----------------------||
A||------------------------------------------------||
E||------------------------------------------------||


Chorus
e||--6-5-4-3--||
B||--6-5-4-1--||
G||--7-5-5-0--||
D||--8-7-6-2--||
A||--8-7-6-3--||
E||--6-5-4----||


Solo
e||------------------------------------------------------||
B||------------------------------------------8--10-10-8~-||
G||--17-17b19r17-16-17-14-16-14-12-9h10-9-7-9-9-9--9--9~-||
D||------------------------------------------------------||
A||------------------------------------------------------||
E||------------------------------------------------------||

e||-----------------------------------------------------------||
B||------------------------------------------8--10-10-8--8-8--||
G||--17-17b19r17-16-17-14-16-14-12-9h10-9-7-9-9-9--9--9-10-9--||
D||-----------------------------------------------------------||
A||-----------------------------------------------------------||
E||-----------------------------------------------------------||




Title: What If I Do?
Artist: Foo Fighters
Album: In Your Honor

Tabbed by: alexb (dirmass [ at ] gmail [ dot ] com)

Tuning: ?Standard? (E A D G B E)




Intro and main riff:
Guitar 1 Acoustic:
                                    G variations - Follow the song for the exact chord strumming pattern
E|---------------------------------333------------||
B|---------------------------------333------------||
G|------2--4--0--2--5--2--0-----0--000------------||
D|-----------(5)---------(5)-0h2---200------------||
A|---3-------------------------------3------------||
E|------------------------------------------------||

Guitar 2 Clean Electric:
Intro:
E|------------3-----5-----7-----------------------||
B|------5--------------------8--6-5---------------||
G|---4/5---4/5---4/5---4/5---9--7-5---------------||
D|------------------------------------------------||
A|------------------------------------------------||
E|------------------------------------------------||

Chorus:

use the following chords:

     A#  Am  G#	 C
E|---6---0---4---0---||
B|---6---1---4---1---||
G|---7---2---5---0---||
D|---8---2---6---2---||
A|---8---0---6---3---||
E|---6-------4-------||

	  A#
What if I do love....
	
           Am
What if I don't?...

	      G#
I'd have to loose...

	 C
Just to find you...


Solo:
Guitar 2:

E|------------------------------------------------||
B|------------------------------------------------||
G|--17--17b19r17--16--17--14--16p14--12--14-------||
D|------------------------------------------------||
A|------------------------------------------------||
E|------------------------------------------------||

E|------------------------------------------------||
B|-----------------8--10--10--8--6-5--------------||
G|--9--10p9--7--9-------------9--7-5--------------||
D|------------------------------------------------||
A|------------------------------------------------||
E|------------------------------------------------||

Not sure about the tuning, think it's tuned 1/2 a step down and the tab is not 100% correct :).


Important: The song above is NOT stored on the Chordie server. The original song is hosted at www.xguitar.com. Chordie works as a search engine and provides on-the-fly formatting. Chordie does not index songs against artists/composers will. To remove this song please click here.

This song is displayed as text-only. Transposing and tuning is only available for chordpro-songs.

Login - add to songbook

Rating click stars to rate

Layout
Accuracy

SHARE PAGE  




You need to log in to post comments