Chordie logo


Not My Idea   Garbage



X===============================PLEASE NOTE==============================X
X  This tab is all my own and represents my interpretation of the song.  X
X You may only use this tab for private study, scholarship, or research. X
X  Do not change, deface, mutilate, or in any other way alter this tab.  X
X   You must email me first if you want to use this tab on your site.    X
X========================================================================X
*Not my Idea*
Trancribed by Obscured@san.rr.com
Http://home.san.rr.com/obscured
Tuning: E A D G B E
INTRO
|------------------------------------------------------|
|------------------------------------------------------|
|-2--x-x-2--x-x-2--x-x-2--x-x-2--x-x-2--x-x-2--x-x-3-3-|
|-2--x-x-2--x-x-2--x-x-2--x-x-2--x-x-2--x-x-2--x-x-3-3-|
|-0--x-x-0--x-x-0--x-x-0--x-x-0--x-x-0--x-x-0--x-x-1-1-|
|------------------------------------------------------|

 Lead
|-----------------------------------|
|---------------12------------------|
|--------12------------12-----15----|
|-----14----14------14-----14-------|
|-12--------------------------------|
|-----------------------------------|

 Lead second time
|------------------------|
|------------------------|
|--------12-----15b17----|
|-----14----14-----------|
|-12---------------------|
|------------------------|
VERSE
|-1----0----1----0----|
|-1----1----1----0----|
|-2----0----2----0----|
|-3----2----3----2----|
|-3----3----3----3----|
|-1---------1---------|

          x3
|-1----0----|-1----0----|
|-1----1----|-1----0----|
|-2----0----|-2----0----|
|-3----2----|-3----2----|
|-3----3----|-3----3----|
|-1---------|-1---------|
CHORUS - Play intro
VERSE 2 - Same

 Lead
|-------19b20-----------|
|-19b20-----------19b20-|
|-------------17--------|
|-----------------------|
|-----------------------|
|-----------------------|
CHORUS 2 - Same
INTERLUDE
|-------------------------------|
|-------------------------------|
|-------------------------------|
|-x-x-x-x-x-x-x-x-x-x-x-x-x-x-x-|
|-x-x-x-x-x-x-x-x-x-x-x-x-x-x-x-|
|-x-x-x-x-x-x-x-x-x-x-x-x-x-x-x-|
BRIDGE
|------------|
|-12----7----|
|-12----7----|
|-12----7----|
|-10----5----|
|------------|
VERSE 3
|-------------------------------|
|-------------------------------|
|-------------------------------|
|-x-x-x-x-x-x-x-x-x-x-x-x-x-x-x-|
|-x-x-x-x-x-x-x-x-x-x-x-x-x-x-x-|
|-x-x-x-x-x-x-x-x-x-x-x-x-x-x-x-|
CHORUS 3
|------------------------------------------------------|
|------------------------------------------------------|
|-4--x-x-4--x-x-4--x-x-4--x-x-4--x-x-4--x-x-4--x-x-5-5-|
|-4--x-x-4--x-x-4--x-x-4--x-x-4--x-x-4--x-x-4--x-x-5-5-|
|-2--x-x-2--x-x-2--x-x-2--x-x-2--x-x-2--x-x-2--x-x-3-3-|
|------------------------------------------------------|

 Lead
|-----------------------------------|
|---------------14------------------|
|--------14------------14-----17----|
|-----16----16------16-----16-------|
|-14--------------------------------|
|-----------------------------------|

 Lead last time
|------------------------|
|------------------------|
|--------14-----17b19----|
|-----16----16-----------|
|-14---------------------|
|------------------------|
OUTRO
|-1----0----|
|-1----1----|
|-2----0----|
|-3----2----|
|-3----3----|
|-1---------|

 Lead
|-------19b20-----------|
|-19b20-----------19b20-|
|-------------17--------|
|-----------------------|
|-----------------------|
|-----------------------|

Then play this and fade out
|-------------------------------|
|-------------------------------|
|-------------------------------|
|-x-x-x-x-x-x-x-x-x-x-x-x-x-x-x-|
|-x-x-x-x-x-x-x-x-x-x-x-x-x-x-x-|
|-x-x-x-x-x-x-x-x-x-x-x-x-x-x-x-|


Important: The song above is NOT stored on the Chordie server. The original song is hosted at www.xguitar.com. Chordie works as a search engine and provides on-the-fly formatting. Chordie does not index songs against artists/composers will. To remove this song please click here.

This song is displayed as text-only. Transposing and tuning is only available for chordpro-songs.

Login - add to songbook

Rating click stars to rate

Layout
Accuracy

SHARE PAGE  




You need to log in to post comments