Guitar Tabs, Chords and Lyrics


Radio   Goldfinger



Song Radio
Band Goldfinger
Off The Album Open Your Eyes

Tabbed By Joe Costa
This tab is all my own work
Any suggestions, comments, corrections e-mail me at goldfingerfan311@aol.com


Written By John Feldmann and Kelly LeMieux
Published by LeMieux Music/Vegan Boy Music (ASCAP)
Published and Copyright 2002 ZMJO Corporation
an original sound recording by Zomba Recording Corporation

This song might be tuned down 1/2 step, but this sounds good anyway.

/- This means slide

Intro (There is also a 2nd guitar playing the verse chords in the background)- 0:04
e ----------------------------------------------------------------
b ----------------------------------------------------------------
g -----7-6-------------------------7-6----------------------------
d -0-------7--5-5--4--5/7--0-------------7-5-5----7/9--7----------
a ----------------------------------------------------------------
e ----------------------------------------------------------------

e ----------------------------------------------------------------
b ----------------------------------------------------------------
g ----------7-6----------------------7--6--7/9--7--9/12--11--11/--
d -----0--------7--5-5--4--5/7-0----------------------------------
a ----------------------------------------------------------------
e ----------------------------------------------------------------

Verse 0:30
e ---------------------------------------------------------------------
b ---------------------------------------------------------------------
g ------7777-----------------------------------------------------------
d ------7777--------55--------77---------------------------------------
a ------5555--------55--------77---------------------------------------
e ------------------33--------55---------------------------------------

Chorus 0:56
"Long live my radio, it never let’s me down, long live my radio give me sound"
e ---------------------------------------------------------------------------
b ---------------------------------------------------------------------------
g ----------------77----------44----------------77----------77---------------
d ----55----77----77----77----44----55----77----77----77----77----77-----55--
a ----55----77----55----44----22----55----77----55----77----55----77-----55--
e ----33----55----------------------33----55----------55----------55-----33—

Play first half of intro again here 1:04

Second verse is the same as the first, only palm muted 1:22

Now play the chorus, and then this post-chorus: 1:36
"Long live my radio please make it alright, long live my radio tonight"
e -----------------------------------------------------------------------------
b -----------------------------------------------------------------------------
g ------------------444-------------------------777-----------777--------------
d ---555----777-----444----777----555----777----777----777----777-----777------
a ---555----777-----222----777----555----777----555----777----555-----777------
e ---333----555------------555----333----555-----------555------------555------

Then play the bridge
"And when the static's screaming louder than your life…" 2:00
e -----------------------------------------------
b -----------------------------------------------
g -----------------------------------------6-----
d -----------------------------4-----4-----------
a -2-2-4-2-----------------------5-4-------------
e ---------2-2-3-2-0-2-3-3-5-3-------------------
The chorus is done once ONLY with bass 2:24

Repeat the chorus and the post chorus 2:39

End on this 3:11
g ---------7-6----------------------7-6--------------------------------------------


Important: The song above is NOT stored on the Chordie server. The original song is hosted at www.xguitar.com. Chordie works as a search engine and provides on-the-fly formatting. Chordie does not index songs against artists'/composers' will. To remove this song please click here.

This song is displayed as text-only. Transposing and tuning is only available for chordpro-songs.

Login - add to songbook

Rating click stars to rate

Layout
Accuracy

SHARE PAGE  




You need to log in to post comments