Guitar Tabs, Chords and Lyrics


Flies First Class   Good Riddance



----------------------------------------------------------------
Good Riddance - america flies first class
----------------------------------------------------------------

e-|-------------------------------------------------------------
B-|-------------------------------------------------------------
G-|-------------------------------------------------------------
D-|-7-7-----7-7-5-7-7-----7-7-----7-7-----7-7-5-7-7-----7-7-----
A-|-----7-7-----------8-8-----7-7-----7-7-----------8-8-----7-7-
E-|-------------------------------------------------------------

e-|-------------------------------------------------------------
B-|-------------------------------------------------------------
G-|-------------------------------------------------------------
D-|-7-7-----7-7-5-7-7-----7-7-----7-7-----7-7-5-7-7-----7-7-----
A-|-----7-7-----------8-8-----7-7-----7-7-----------8-8-----7-7-
E-|-------------------------------------------------------------

e-|-------------------------------------------------------------
B-|-------------------------------------------------------------
G-|-------------------------------------------------------------
D-|-7-7-----7-7-5-7-7-----7-7-----7-7-----7-7-5-7-7-----7-7-----
A-|-----7-7-----------8-8-----7-7-----7-7-----------8-8-----7-7-
E-|-------------------------------------------------------------

e-|-------------------------------------------------------------|
B-|-------------------------------------------------------------|
G-|-------------------------------------------------------------|
D-|-7-7-----7-7-5-7-7-----7-7-----7-7-----7-7-5-7-7-----7-7-----|
A-|-----7-7-----------8-8-----7-7-----7-7-----------8-8-----7-7-|
E-|-------------------------------------------------------------|

e-|-------------------------------------------------------------------
B-|-------------------------------------------------------------------
G-|-------------------------------------------------------------------
D-|-7-7-7-7-7-7-7-7-9-9-9-9-10-10-9-9-9-9-9-9-10-10-10-10-12-12-12-12-
A-|-------------------------------------------------------------------
E-|-------------------------------------------------------------------

e-|----------------------------------------------------------------
B-|----------------------------------------------------------------
G-|----------------------------------------------------------------
D-|-10-10-10-10-12-12-12-12-14-14-14-14-12-12-12-12-15-15-15-15-14-
A-|----------------------------------------------------------------
E-|----------------------------------------------------------------

e-|-------------------------------------------------------------------------
B-|-------------------------------------------------------------------------
G-|-------------------------------------------------12-12-11-11-12-12-11-11-
D-|-15-15-14-14-15-15-14-14-15-15-14-14-15-15-14-14-------------------------
A-|-------------------------------------------------------------------------
E-|-------------------------------------------------------------------------

e-|------------------------------------------------------------------------|
B-|------------------------------------------------------------------------|
G-|-12-12-11-11-12-12-11-11-14-14-12-12-14-14-12-12-12-12-11-11-12-12-11---|
D-|----------------------------------------------------------------------7-|
A-|----------------------------------------------------------------------7-|
E-|----------------------------------------------------------------------5-|

e-|-------------------------------------------------------------
B-|-------------------------------------------------------------
G-|-------------------------------------------------------------
D-|-7-7-----7-7-5-7-7-----7-7-----7-7-----7-7-5-7-7-----7-7-----
A-|-----7-7-----------8-8-----7-7-----7-7-----------8-8-----7-7-
E-|-------------------------------------------------------------

e-|-------------------------------------------------------------
B-|-------------------------------------------------------------
G-|-------------------------------------------------------------
D-|-7-7-----7-7-5-7-7-----7-7-----7-7-----7-7-5-7-7-----7-7-----
A-|-----7-7-----------8-8-----7-7-----7-7-----------8-8-----7-7-
E-|-------------------------------------------------------------

e-|-------------------------------------------------------------
B-|-------------------------------------------------------------
G-|-------------------------------------------------------------
D-|-7-7-----7-7-5-7-7-----7-7-----7-7-----7-7-5-7-7-----7-7-----
A-|-----7-7-----------8-8-----7-7-----7-7-----------8-8-----7-7-
E-|-------------------------------------------------------------

e-|-------------------------------------------------------------|
B-|-------------------------------------------------------------|
G-|-------------------------------------------------------------|
D-|-7-7-----7-7-5-7-7-----7-7-----7-7-----7-7-5-7-7-----7-7-----|
A-|-----7-7-----------8-8-----7-7-----7-7-----------8-8-----7-7-|
E-|-------------------------------------------------------------|

e-|---------------------------------------------------------------|
B-|---------------------------------------------------------------|
G-|---------------------------------------------------------------|
D-|---------------5-5-------------7-7-------------5-5-------------|
A-|-3-3-3-3-5-7-7-3-3-3-3-3-3-5-7-5-5-3-3-3-3-5-7-3-3-3-3-3-3-5-7-|
E-|-1-1-1-1-3-5-5-----1-1-1-1-3-5-----1-1-1-1-3-5-----1-1-1-1-3-5-|

e-|-------------------------------------------------------------
B-|-------------------------------------------------------------
G-|-------------------------------------------------------------
D-|-7-7-----7-7-5-7-7-----7-7-----7-7-----7-7-5-7-7-----7-7-----
A-|-----7-7-----------8-8-----7-7-----7-7-----------8-8-----7-7-
E-|-------------------------------------------------------------

e-|-------------------------------------------------------------
B-|-------------------------------------------------------------
G-|-------------------------------------------------------------
D-|-7-7-----7-7-5-7-7-----7-7-----7-7-----7-7-5-7-7-----7-7-----
A-|-----7-7-----------8-8-----7-7-----7-7-----------8-8-----7-7-
E-|-------------------------------------------------------------

e-|-------------------------------------------------------------
B-|-------------------------------------------------------------
G-|-------------------------------------------------------------
D-|-7-7-----7-7-5-7-7-----7-7-----7-7-----7-7-5-7-7-----7-7-----
A-|-----7-7-----------8-8-----7-7-----7-7-----------8-8-----7-7-
E-|-------------------------------------------------------------

e-|-------------------------------------------------------------|
B-|-------------------------------------------------------------|
G-|-------------------------------------------------------------|
D-|-7-7-----7-7-5-7-7-----7-7-----7-7-----7-7-5-7-7-----7-7-----|
A-|-----7-7-----------8-8-----7-7-----7-7-----------8-8-----7-7-|
E-|-------------------------------------------------------------|

e-|---------------------------------------------------------------|
B-|---------------------------------------------------------------|
G-|---------------------------------------------------------------|
D-|---------------5-5-------------7-7-------------5-5-------------|
A-|-3-3-3-3-5-7-7-3-3-3-3-3-3-5-7-5-5-3-3-3-3-5-7-3-3-3-3-3-3-5-7-|
E-|-1-1-1-1-3-5-5-----1-1-1-1-3-5-----1-1-1-1-3-5-----1-1-1-1-3-5-|

e-|---------------------|-------------------------------------------------
B-|---------------------|-------------------------------------------------
G-|---------------------|-------------------------------------------------
D-|-----------7-9-10-12-|-----------------5-5-5-5-5-5-5-5-----------------
A-|-7---8-7-------------|-7-7-7-7-7-7-7-7-3-3-3-3-3-3-3-3-5-5-5-5-5-5-5-5-
E-|-5-------------------|-5-5-5-5-5-5-5-5-----------------3-3-3-3-3-3-3-3-

e-|------------------------------------------------------------------
B-|------------------------------------------------------------------
G-|------------------------------------------------------------------
D-|----------------------------------5-5-5-5-5-5-5-5-----------------
A-|-7-7-7-7-7-7-7-7--7-7-7-7-7-7-7-7-3-3-3-3-3-3-3-3-5-5-5-5-5-5-5-5-
E-|-5-5-5-5-5-5-5-5--5-5-5-5-5-5-5-5-----------------3-3-3-3-3-3-3-3-

e-|-----------------|-----------------------------------------------------
B-|-----------------|-----------------------------------------------------
G-|-----------------|-----------------------------------------------------
D-|-----------------|-7-7-5-5-7-7-5-5-7-7-5-5-7-7-5-5-10-10-9-9-10-10-9-9-
A-|-7-7-7-7-7-7-7-7-|-----------------------------------------------------
E-|-5-5-5-5-5-5-5-5-|-----------------------------------------------------

e-|---------------------------------------------------------------------
B-|---------------------------------------------------------------------
G-|---------------------------------------------------------------------
D-|-10-10-9-9-10-10-9-9-12-12-10-10-12-12-10-10-12-12-10-10-12-12-10-10-
A-|---------------------------------------------------------------------
E-|---------------------------------------------------------------------

e-|------------------------------------------------------------------
B-|------------------------------------------------------------------
G-|------------------------------------------------------------------
D-|-14-14-12-12-14-14-12-12-14-14-12-12-14-14-12-12--7-7-5-5-7-7-5-5-
A-|------------------------------------------------------------------
E-|------------------------------------------------------------------

e-|---------------------------------------------------------------------
B-|---------------------------------------------------------------------
G-|---------------------------------------------------------------------
D-|-7-7-5-5-7-7-5-5-10-10-9-9-10-10-9-9-10-10-9-9-10-10-9-9-12-12-10-10-
A-|---------------------------------------------------------------------
E-|---------------------------------------------------------------------

e-|-------------------------------------------------------------------------
B-|-------------------------------------------------------------------------
G-|-------------------------------------------------------------------------
D-|-12-12-10-10-12-12-10-10-12-12-10-10-14-14-12-12-14-14-12-12-14-14-12-12-
A-|-------------------------------------------------------------------------
E-|-------------------------------------------------------------------------

e-|-------------------------------------------------------------|
B-|-------------------------------------------------------------|
G-|-------------12-12-11-12-12-11-12-12-11-12-12-11-------------|
D-|-14-14-12-12-12-12-11-12-12-11-12-12-11-12-12-11-------------|
A-|-------------------------------------------------3-3-3-3-5-7-|
E-|-------------------------------------------------1-1-1-1-3-5-|

----------------------------------------------------------------


Important: The song above is NOT stored on the Chordie server. The original song is hosted at www.xguitar.com. Chordie works as a search engine and provides on-the-fly formatting. Chordie does not index songs against artists'/composers' will. To remove this song please click here.

This song is displayed as text-only. Transposing and tuning is only available for chordpro-songs.

Login - add to songbook

Rating click stars to rate

Layout
Accuracy

SHARE PAGE  




You need to log in to post comments