"yes"; ?> Spirit in You by Heather Nova - guitar chords, guitar tabs and lyrics - chordie

Spirit in You

Heather Nova

e|------------------5---3---0----------

B|---------0h1--------3---0------------
G|-------2-----------------------------
D|-----2-------------------------------
A|---0---------------------------------
E|-------------------------------------

 FEmCAm
 Under your skin...                

 FEmDsus2
 FEmCAm
 FEmDsus2

Pre-chorus:

although this part just alternated between Am and C, it sounds more
like the recording (and just really cool) if you throw in a B note
on the A string, like this:

 AmC
e|----0-------0---
B|----1-------1---
G|----2-------0---
D|----2-------2---
A|----0----2--3---
E|----------------


then for the last line of the pre-chorus, switch to just Dsus2.

For the chorus, repeat the intro rhythm figure. The bridge is the
same as the pre-chorus, just follow the Am/C alternation, up until
this part:

 AmEm
 So close your eyes...

 AmEm
 AmEm
 AmDsus2

Then switch back to the pre-chorus. This is one of Heather's most
amazing songs, so I hope you enjoy it. Improvements / corrections
welcome. And if anyone else has heather tabs, PLEASE POST! Thanks!



Am C Dsus2 Em F
variations - click chord images
Transpose chords:
Tuning:
Cool service:
View: Size:
A  A  A
Rating:
Layout:
  • Currently 3.8/5 Stars.
  • 1
  • 2
  • 3
  • 4
  • 5
 
Accuracy:
  • Currently 0/5 Stars.
  • 1
  • 2
  • 3
  • 4
  • 5
 
click stars to rate
Chordie recommends:
Check out JamPlay.com for online video guitar lessons
Songbook:
Login to add this song to your songbook
Support the artist
Preview/buy this song
MSN Music
Why this non-profit ad?

 
login to add comments/video/corrections